20211128

ALBERT KING - THE FEELING SOLO TAB


Albert King - The Feeling from the album called New Orleans Heat (2006)
There is a nice minor blues solo between 1:15 and 2:15
Download the TAB under the video




THE FEELING SOLO TAB

PDF + GUITAR PRO >>

Solo

e----6(10)---6(10)---(6)------------------------------------------------
B-----------------------------------------------------------------------
G-----------------------------------------------------------------------
D-----------------------------------------------------------------------
A-----------------------------------------------------------------------
E-----------------------------------------------------------------------


e---8(10)---6(8)-----6'----------6-8-8(10)---8(10)-(8)(10)--------------
B-----------------------8~----------------------------------------------
G-----------------------------------------------------------------------
D-----------------------------------------------------------------------
A-----------------------------------------------------------------------
E-----------------------------------------------------------------------


e-----8(10)---8'----6'---------6-8-8(10)---6(8)------6'-------6---------
B---------------------8~------------------------------------8---8~~~----
G-----------------------------------------------------------------------
D-----------------------------------------------------------------------
A-----------------------------------------------------------------------
E-----------------------------------------------------------------------

20211117

PRETTY WOMAN FINGERSTYLE TAB


Roy Orbison - Pretty Woman acoustic fingerstyle guitar cover by Larissa Liveir
It's arranged in Standard tuning with Capo on the 2nd fret
Download the TAB under the video



PRETTY WOMAN FINGERSTYLE TAB

PDF + GUITAR PRO >>


e-----------------------------------------------------------------------
B-----------------------------------------------------------------------
G-----------------------------------------------------------------------
D------------0-----------x---x---x------------0-----------x---x---x-----
A----------2-------------x---x---x----------2-------------x---x---x-----
E---0-0-3/4--------------x---x---x---0-0-3/4--------------x---x---x-----


e-----------------------------------------------------------------------
B-----------------------------------------------------------------------
G-----------------------------------------------------------------------
D------------0-4-2-0----------0-4-2-0----------0-4-2-0----------0-4-----
A----------2----------------2----------------2----------------2---------
E---0-0-3/4----------0-0-3/4----------0-0-3/4----------0-0-3/4----------


e-----------------------------------------------------------------------
B---0h2-0-----------0h2-0-----2-----0h2-0-----------0h2-0-----2---------
G-------2-2---2---2-----2-2-------2-----2-2---2---2-----2-2-------2-----
D-------2---2-----------2---2-----------2---2-----------2---2-----------
A-------0-------0-----------------------0-------0-----------------------
E-----------------------2-------2-----------------------2-------2-------

20211108

THE LOCOMOTIONS - SKY BLUE TAB (LIVE)


The Locomotions - Sky Blue vintage instrumental guitar song
Live version from the album "Relive the 60's" recorded in 2015
Download the TAB under the video



THE LOCOMOTIONS SKY BLUE TAB

PDF + GUITAR PRO >>

e-----9~------------------9\7-5-4-2-0-0~--------------------------------
B-----10~----------------10\9-7-5-3-2-----------------------------------
G---9-------------------------------------------------------------------
D-----------------------------------------------------------------------
A-----------------------------------------------------------------------
E-----------------------------------------------------------------------


e-----------------------------------------------------------------------
B-----------------------------------------------------------------------
G---2-------1--2--1-----------------------------------------------------
D--------------------2~-----------2-1-0~--------------------------------
A---------------------------4-3-4---------------------------------------
E-----------------------------------------------------------------------


e-----------------------------------------------------------------------
B-----------------------------------------------------------------------
G---1~----------1-------------------------------------------------------
D------------4-----4--0~-----0---0-4-3-2~-------------------------------
A------------------------------4----------------------------------------
E-----------------------------------------------------------------------


e-----------------------------------------------------------------------
B-----------------------------------------------------------------------
G-----------------------------------------------------------------------
D-------2---1---0---4~-------4-4h5-4--------------2-1-0~----------------
A------------------------------------4~-----4-3-4-----------------------
E-----------------------------------------------------------------------

20211031

BILLY STRINGS - FISHIN' CREEK BLUES TAB (NORMANS RARE GUITARS)


Billy Strings plays Fishin' Creek Blues by Dan Crary live at Normans Rare Guitars
It's in Dropped D tuning and he plays a 1976 Mossman Great Plains guitar
Download the TAB under the video



FISHIN' CREEK BLUES TAB

PDF + GUITAR PRO >>

e---------0-2---2-5-2-0-----------0-0h2p0--0-2---2-5-2-0----------------
B-------3---------------3-0---0-3--------3---------------3-0------------
G---------------------------2--------------------------------2-0--------
D---0------------------------------------------------------------2-4----
A-----------------------------------------------------------------------
D-----------------------------------------------------------------------


e---------0-2---2-5-2-0-----------0-0h2p0--0-2---2-5-2-0----------------
B-------3---------------3-0---0-3--------3---------------3-0------------
G---------------------------2--------------------------------2-0--------
D---0------------------------------------------------------------2-4----
A-----------------------------------------------------------------------
D-----------------------------------------------------------------------


e-------0-----------------------0-0---------------------0-0-------------
B-------3---------3-------------1-1---------------1-----1---------------
G-------2---2---2---------------0-0-------0-----0-----0-----------------
D---0---------4-----4-2-0-------2-----0-2---2h3-----3-------2-0---------
A-------------------------2-3-------3---------------------------3/5-----
D-----------------------------------------------------------------------

20211023

LEDWARD KAAPANA - SALOMILA TAB (LIVE WITH FRAN GUIDRY)


Led Kaapana & Fran Guidry play Salomila slack key guitar song live in Walnut Creek
It's in Open G tuning and Led Kaapana's guitar line is transcribed
Download the TAB under the video



LED KAAPANA - SALOMILA TAB

PDF + GUITAR PRO >>

d----9-----9------10-9-----0---5-------9-----9------10-9-----0---5------
B----------------------8---------------8-----------------8--------------
G--------7---/9--------------4-----4/7-7---7---/9--------------4-----5--
D------0--------0--------0-------0-------0--------0--------0-------0----
G--0-------0---------0-------0-------0-------0---------0-------0--------
D-----------------------------------------------------------------------


d-----7-----7-9--------12---10-9-7---0---9---0---0-4-5-------0-------0--
B------------------------------------------8-------------0-------0------
G---------5------/11---------------5/7---------5-----------0------------
D-------0-------0---------0--------0-------0-------0---------------0----
G------------------------------------------------------0-------4--------
D---0-------0--------0---------0-------0-------0------------------------


d-----2---2p0---0-4-5-------5-------0-----------------------------------
B-------------1---------0-------0---------------------------------------
G-------------------------0---------------------------------------------
D-------0---------0---------------0-------------------------------------
G---------------------0-------0-----------------------------------------
D---0---------0---------------------------------------------------------