20121209

STING SHAPE OF MY HEART TAB (ACOUSTIC GUITAR TAB)


Sting - Shape Of My Heart acoustic guitar lesson by Dominic Miller himself
He shows us how to play the main riff of the song nice and clear
Download the TAB under the video



SHAPE OF MY HEART ACOUSTIC TAB

GP5 + GP6 + PDF >>

Intro & Verse

e-----------------------------------------------------------------------
B---10---------10-----9---------9-----7---------7-----7-------6-----/---
G----------6----------------6---------------4-------------4-------4-----
D-----------------------------------------------------------------------
A--------9----------7-----7---------5-----5---------5-4-----------------
E-----------------------------------------------------------------------


e-----------------------------------------------------------------------
B---10---------10-----9---------9-----7---------7-----7-------6---------
G----------7----------------6---------------4-------------4-------4-----
D-----------------------------------------------------------------------
A--------9----------7-----7---------5-----5---------5-4-------------4---
E-----------------------------------------------------------------------


e---------------5-------------------------------------------------------
B---------7-----------7-----------5-----5-----------------6-------------
G-------4-----4-----------4---x---2h4---2-----2.------------------------
D-----------------------------------------------------6-------6.--------
A---5---------------------------------------------4---------------------
E-------------------------------5---------------------------------------


e-----------------------------------2-----------------------------------
B---7-----5---------2---------------2-----------------------------------
G---------------7.--4-----4-----2.--2-----------------------------------
D---7---------------4---------------4-----------------------------------
A---5-------------------------------4-----------------------------------
E-------------------4---------------2-----------------------------------