20130801

ERIC CLAPTON OLD LOVE TAB (LIVE IN HYDE PARK)

Eric Clapton - Old Love live in Hyde Park. Amazing song with a brilliant solo part.
Note that Sir Eric Clapton plays without any extra effects, only the pure Stratocaster and it sounds amazing. TAB below.



ERIC CLAPTON OLD LOVE TAB

PDF >>

Intro part

e-----------------------------------------------------------------------
B-----------------------------------------------------------------------
G-----------------------------------------------------------------------
D--------5.---7.--------------------------------------------------------
A-5h7.------------------------------------------------------------------
E-----------------------------------------------------------------------


e-----------------------------------------------------------------------
B-5-------x---6---------------x---3-------x---3-------------------------
G-5-------x---5---------------x---5-------x---4-------------------------
D---7~----x---7---------------x---5-------x---5-------------5-----------
A---------x---5---------------x---5-------x---5-------5/7-----7\5--p3---
E-----------------------------------------------------------------------



e-----------------------------------------------------------------------
B----------------------6---------------x---3-------x---3----------------
G----------------------5---------------x---5-------x---4----------------
D----------------------7---------------x---5-------x---5----------------
A-----------3---5/7.---5---------------x---5-------x---5----------------
E-5--p3-5---------------------------------------------------------------


e-----------------------------------------------------------------------
B-----------------5---------------------------------3-------x---3-------
G-----------------5h7---5---------------------------5-------x---4-------
D-------5.---7.-----------7-7~----------------------5-------x---5-------
A-5/7-----------------------------------------------5-------x---5-------
E-----------------------------------------------------------------------


e-----------------------------------------------------------------------
B----------------------------------------6----------------x-------------
G----------------------------------------5----------------x-------------
D-------5--------------------------------7----------------x-------------
A-5/7-----7\5---p3------------3---5/7.---5----------------x-------------
E------------------5---p3-5---------------------------------------------


e-----------------------------------------------------------------------
B-3-------x---3---------------------------------------------------------
G-5-------x---4---------------------------------------------------------
D-5-------x---5---------------------------------------------------------
A-5-------x---5---------------------------------------------------------
E-------------------------3-3-3/5---------------------------------------


Verse

e-5---------------------------------------------------------------------
B-5-------x---6---------------x---3-------x---3-------------------------
G-5-------x---5---------------x---5-------x---4-------------------------
D-7-------x---7---------------x---5-------x---5-------------------------
A-7-------x---5---------------x---5-------x---5-------------------------
E-5--------------------------------------------------------3-3-3/5------


e-5---------------------------------------------------------------------
B-5-------x---6---------------x---3-------x---3-------------------------
G-5-------x---5---------------x---5-------x---4-------------------------
D-7-------x---7---------------x---5-------x---5-------------------------
A-7-------x---5---------------x---5-------x---5-------------------------
E-5--------------------------------------------------------3-3-3/5------


e-5---------------------------------------------------------------------
B-5-------x---6---------------x---3-------x---3-------------------------
G-5-------x---5---------------x---5-------x---4-------------------------
D-7-------x---7---------------x---5-------x---5-------------------------
A-7-------x---5---------------x---5-------x---5-------------------------
E-5--------------------------------------------------------3-3-3/5------


e-5---------------------------------------------------------------------
B-5-------x---6---------------x---3-------x---3-------------------------
G-5-------x---5---------------x---5-------x---4-------------------------
D-7-------x---7---------------x---5-------x---5-------------------------
A-7-------x---5---------------x---5-------x---5-------------------------
E-5----------------------------------------------------3---3-3-3\1------

Chorus

e-1------------------------------0--------------------------------------
B-1------------------------------5--------------------------------------
G-2------------------------------7--------------------------------------
D-3------------------------------6--------------------------------------
A-3------------------------------7--------------------------------------
E-1---------------------------------------------------------------------


e-5------------------------------------------5--------------------------
B-5-----------5------------------5-----------5--------------------------
G-5-----------5------------------5-----------5--------------------------
D-7-----------6------------------5-----------4--------------------------
A-7---------------------------------------------------------------------
E-5---------------------------------------------------------------------


e-1------------------------------0--------------------------------------
B-1------------------------------5--------------------------------------
G-2------------------------------7--------------------------------------
D-3------------------------------6--------------------------------------
A-3------------------------------7--------------------------------------
E-1---------------------------------------------------------------------


e-1------------------------------0--------------------------------------
B-1------------------------------5--------------------------------------
G-2------------------------------7--------------------------------------
D-3------------------------------6--------------------------------------
A-3------------------------------7--------------------------------------
E-1---------------------------------------------------------------------


SOLO by 3:20

e-----------------------------------------------------------------------
B-----------------------------------------------------------------------
G-7/9~~~------------9\7---5-7-7~----------------------------------------
D-----------------------------------------------------------------------
A-----------------------------------------------------------------------
E-----------------------------------------------------------------------


e-------------------8.---10.---8h10.---8'----------8'-------------------
B-------------10.--------------------------10-10------------------------
G-9~-----9.-------------------------------------------------------------
D-----------------------------------------------------------------------
A-----------------------------------------------------------------------
E-----------------------------------------------------------------------


e-8h10---8----------8-----------------------------5---8'---5-8-5h8p5~---
B----------10-10~-----10-8----------------------5---5-------------------
G--------------------------9\7---5---7---5-7(9)-------------------------
D----------------------------------7---7--------------------------------
A-----------------------------------------------------------------------
E-----------------------------------------------------------------------


e-5-5-5-5h8-5~-----h8.--------------------------------------------------
B-----------------------------------------------------------------------
G-----------------------------------------------------------------------
D-----------------------------------------------------------------------
A-----------------------------------------------------------------------
E-----------------------------------------------------------------------


e-7.---8.---10.--8.--10.--12-12~~-------12--/15---12~-------------------
B-----------------------------------------------------------------------
G-----------------------------------------------------------------------
D-----------------------------------------------------------------------
A-----------------------------------------------------------------------
E-----------------------------------------------------------------------


e----12-----------------------------------------------------------------
B-15----15(17)-15~~---------------------13.---12------------------------
G-------------------------------------------------14-12-----------------
D-------------------------------------------------------14~-------------
A-----------------------------------------------------------------------
E-----------------------------------------------------------------------


e-----------------------------------------------------------------------
B---------12-13-15-13-15-17.--15h17-15h17-15~---h17.--------------------
G------14---------------------------------------------------------------
D-14--------------------------------------------------------------------
A-----------------------------------------------------------------------
E-----------------------------------------------------------------------


e-----------------------------------------------------------------------
B-15.---17-15h17p15----15.---17-15h17p15----15----15-17-15----15.-------
G-------------------17-------------------17----17----------17-----------
D-----------------------------------------------------------------------
A-----------------------------------------------------------------------
E-----------------------------------------------------------------------


e-----------------------------------------------------------------------
B-15h17.--15h17.--15----------------------------------------------------
G--------------------17-16-17.-16h17-16~--------------------------------
D-----------------------------------------------------------------------
A-----------------------------------------------------------------------
E-----------------------------------------------------------------------


e-----------------------------------------------------------------------
B---------------------------------------------15-17.-15h17p15----15-15~-
G-------14-16-17.--14-16-17-14-16-17-14-16-17-----------------17--------
D-14-17-----------------------------------------------------------------
A-----------------------------------------------------------------------
E-----------------------------------------------------------------------


e-----------------------------------------------------------------------
B-15-17-(20)-------(17)-17-15-------------------------------------------
G-----------------------------17-16h17-16~~-----------------------------
D-----------------------------------------------------------------------
A-----------------------------------------------------------------------
E-----------------------------------------------------------------------


e-------15h17.---17.---17p15-15~---h17.---------------------------------
B-15-17-----------------------------------------------------------------
G-----------------------------------------------------------------------
D-----------------------------------------------------------------------
A-----------------------------------------------------------------------
E-----------------------------------------------------------------------


e----20(22)---20'-17~------------------------(20)(19)-17~~--------------
B-17----------------------h20.------------------------------------------
G-----------------------------------------------------------------------
D-----------------------------------------------------------------------
A-----------------------------------------------------------------------
E-----------------------------------------------------------------------


e-17-19.--19(20).--19.--17-19.-19(20).-19.--17-19.-19(20).--19p17-19~---
B-----------------------------------------------------------------------
G-----------------------------------------------------------------------
D-----------------------------------------------------------------------
A-----------------------------------------------------------------------
E-----------------------------------------------------------------------


e-17.--------------(20)---(19)---17-------------------------------------
B-------------------------------------20---17~--------------------------
G-----------------------------------------------------------------------
D-----------------------------------------------------------------------
A-----------------------------------------------------------------------
E-----------------------------------------------------------------------


e-------17-19.--20-19-20---(22)~~---------------------------------------
B-17-20-----------------------------------------------------------------
G-----------------------------------------------------------------------
D-----------------------------------------------------------------------
A-----------------------------------------------------------------------
E-----------------------------------------------------------------------


e-(22)(20)-19-17--------------------------------------------------------
B----------------20-17----17-17~~-------------------15h17-15~~----------
G----------------------19-----------------------------------------------
D-----------------------------------------------------------------------
A-----------------------------------------------------------------------
E-----------------------------------------------------------------------


e-----------------------------------------------------------------------
B-13h15p13-12-13-12----12----------------------12-13-15-13-15(17)~~-----
G-------------------14----14-14~---12----12-14--------------------------
D-------------------------------------14--------------------------------
A-----------------------------------------------------------------------
E-----------------------------------------------------------------------


e-----------------------------------------------------------------------
B-15---13-15.-13h15p13----13-15.-13h15p13----13-15.-13h15p13----13------
G----------------------14-----------------14-----------------14---------
D-----------------------------------------------------------------------
A-----------------------------------------------------------------------
E-----------------------------------------------------------------------


e----------------------------------------------15-17----15-17--/20---17~
B-15.-13h15p13----13-15.-13h15p13----13-15/17--------17-----------------
G--------------14-----------------14------------------------------------
D-----------------------------------------------------------------------
A-----------------------------------------------------------------------
E-----------------------------------------------------------------------


e-17----17.---20-17h20p17----17.---20-17h20p17----17.---20-17h20p17-----
B----20-------------------20-------------------20-------------------20--
G-----------------------------------------------------------------------
D-----------------------------------------------------------------------
A-----------------------------------------------------------------------
E-----------------------------------------------------------------------


e-17----------17~---17~---17~---17--------------------------------------
B----20(22)------------------------20-17--------------------------------
G----------------------------------------19(21)-19-17-19~---17----17----
D--------------------------------------------------------------19-------
A-----------------------------------------------------------------------
E-----------------------------------------------------------------------


e-----------------------------------------------------------------------
B----------------------------------------------------17-18-17h18p17-----
G-19h21-19-17h19p17----17~---19.------------16-17-19----------------19--
D-------------------19-------------------19-----------------------------
A-----------------------------------------------------------------------
E-----------------------------------------------------------------------


e-------------------------------17-------------17---17-17-20(22)--------
B-17-------------------------------17-20(22)----------------------------
G----19-17----19----17-19(21).------------------------------------------
D----------19----19-----------------------------------------------------
A-----------------------------------------------------------------------
E-----------------------------------------------------------------------


e-20(22)-----20(22)---20(22)---20(22)---20(22)---20-17----17h20p17~---\\
B------------------------------------------------------20---------------
G-----------------------------------------------------------------------
D-----------------------------------------------------------------------
A-----------------------------------------------------------------------
E-----------------------------------------------------------------------


e-----------------------------------------------------------------------
B-----------------------------------------------------------------------
G-----------------------------------------------------------------------
D-----------------------------------------------------------------------
A-----------------------------------------------------------------------
E-\\\\\\----------------------------------------------------------------


e-----------------------------------------------------------------------
B----------------8---10-------------------------------------------------
G--------5---7/9---9----9\7-5---7---5-----------------------------------
D----5-7---7------------------7---7---7p5-------------------------------
A-/7--------------------------------------7\5-3---5---------------------
E-----------------------------------------------5---5-3h5-0-----///-\\\-


e-----------------------------------------------------------------------
B-------13----15(17)-----(15)p13-15-15~---13-15-15~---15-13----15-13----
G-12h14----14-----------------------------------------------14-------14-
D-----------------------------------------------------------------------
A-----------------------------------------------------------------------
E-----------------------------------------------------------------------


e-----------------------------------------------------------------------
B-15-13----15-13----------13----15(17)---15-13----15--------------------
G-------14-------14-14~------14----------------14-----------------------
D-----------------------------------------------------------------------
A-----------------------------------------------------------------------
E-----------------------------------------------------------------------


e-----------------------------------------------------------------------
B-13-/13-13-13-13-/13-13-13-13-/13-13-13-13-13-13-13-13-13-13-13-13-----
G----/14-14-14-14-/14-14-14-14-/14-14-14-14-14-14-14-14-14-14-14-14-----
D-----------------------------------------------------------------------
A-----------------------------------------------------------------------
E-----------------------------------------------------------------------


e-----------------------------------------------------------------------
B-/13-13-13-13-/13-13-13-13-/13-13-13-13-/13-13-13-13-----13-15-15------
G-/14-14-14-14-/14-14-14-14-/14-14-14-14-/14-14-14-14-/14---------------
D-----------------------------------------------------------------------
A-----------------------------------------------------------------------
E-----------------------------------------------------------------------


e-15-15-15-15-17-17-17-17-17-17-17-17-17-17-17-17-/17-17-17-17----------
B-17-17-17-17-20-20-20-20-20-20-20-20-20-20-20-20-/20-20-20-20----------
G-----------------------------------------------------------------------
D-----------------------------------------------------------------------
A-----------------------------------------------------------------------
E-----------------------------------------------------------------------


e-/17-17-17-17-/17------------------------------------------------------
B-/20-20-20-20-/20--------20.---17.---------17--------------------------
G-------------------------------------19.------19(21)-----(19)----------
D-----------------------------------------------------------------------
A-----------------------------------------------------------------------
E-----------------------------------------------------------------------


e-----------------------------------------------------------------------
B-17-------------------17-------------------17--------------------------
G----19(21)-----(19)------19(21)-----(19)------19(21)-----(19)----------
D-----------------------------------------------------------------------
A-----------------------------------------------------------------------
E-----------------------------------------------------------------------


e-----------------------------------------------------------------------
B------------------------------------------------------------17--17~~---
G-17h19-19~-----17---16-17-17~---16-17-17(19)---17--19--17-19--19-------
D-------------------------------------------------19--19----------------
A-----------------------------------------------------------------------
E-----------------------------------------------------------------------


e------------------5--------------------------5---8'-----5h8p5---5------
B--///-\\\-----5-----8-5--------------------5---5--------------8--------
G----------------7-------7-5---7---5-7(9)-------------------------------
D----------------------------7---7--------------------------------------
A-----------------------------------------------------------------------
E-----------------------------------------------------------------------


e-8'-5---8'---5---8'---5---8'---5---8/10~---8----------8----10/12-------
B------5--------5--------5--------5-----------10-10~-----10-------------
G-----------------------------------------------------------------------
D-----------------------------------------------------------------------
A-----------------------------------------------------------------------
E-----------------------------------------------------------------------


e-10-12-10h12p10----10--------------------------------------------------
B----------------13----13/15~-----13----15(17)--------------(15)p13-----
G------------------------------------14---------------------------------
D-----------------------------------------------------------------------
A-----------------------------------------------------------------------
E-----------------------------------------------------------------------


e-----------------------------------------------------------------------
B-15(17)-------15(17)---15(17)---15(17)---15(17)---15(16)~---15(16)~----
G-----------------------------------------------------------------------
D-----------------------------------------------------------------------
A-----------------------------------------------------------------------
E-----------------------------------------------------------------------


e-----------------------------------------------------------------------
B-15~---15~---13~---15(17)~---15~---13h15~---13~---15/17~---------------
G-----------------------------------------------------------------------
D-----------------------------------------------------------------------
A-----------------------------------------------------------------------
E-----------------------------------------------------------------------


e-----------------------------------------------------------------------
B-15h17-(20)-------~~~----(20)(17)p15-13-------13-----------------------
G----------------------------------------14p12----12-14.-14h17p14--17---
D----------------------------------------------------------------17--17-
A-----------------------------------------------------------------------
E-----------------------------------------------------------------------


e-----------------------------------------------------------------------
B------------------------------17-17-17~--------------------------------
G-17-17~---17/19---17-19-19~--------------------------------------------
D-----------------------------------------------------------------------
A-----------------------------------------------------------------------
E-----------------------------------------------------------------------


e-------------17.---19.---20-19-17-19~-------------17-19-19~---17-------
B-17.---20.-------------------------------------------------------20-17\
G-----------------------------------------------------------------------
D-----------------------------------------------------------------------
A-----------------------------------------------------------------------
E-----------------------------------------------------------------------


e-20(22)-----20(22)-----20'-----17----17.--20.--17h20p17----17~------17~
B----------------------------------20--------------------20-------------
G-----------------------------------------------------------------------
D-----------------------------------------------------------------------
A-----------------------------------------------------------------------
E-----------------------------------------------------------------------


e-----------------------------------------------------------------------
B-20-17-----------------------17----------------------------------------
G-------19(21)-19-17----17-19----19-19(21)-19-17----17-19-19-\----------
D--------------------19--------------------------19---------------------
A-----------------------------------------------------------------------
E-----------------------------------------------------------------------


e-----------------------------------------------------------------------
B-17.--20.--17h20p17----17-17~~~~~~~~~~~--------------------------------
G--------------------19-------------------------------------------------
D-----------------------------------------------------------------------
A-----------------------------------------------------------------------
E-----------------------------------------------------------------------


e----------------17------------17------------17-------------------------
B-17-17-20(22)--------20(22)--------20(22)--------20(22)-----\\\--------
G-----------------------------------------------------------------------
D-----------------------------------------------------------------------
A-----------------------------------------------------------------------
E-----------------------------------------------------------------------


e-----------------------------------------------------------------------
B-12(13)-----(12)p10-12~---\\\------------------------------------------
G-----------------------------------------------------------------------
D-----------------------------------------------------------------------
A-----------------------------------------------------------------------
E-----------------------------------------------------------------------


e-----------------------------------------------------------------------
B-17-(20)-------------(17)-17.--15--------------------------------------
G----------------------------------17-14-14~---17.----------------------
D-----------------------------------------------------------------------
A-----------------------------------------------------------------------
E-----------------------------------------------------------------------


e-----------------------------------------------------------------------
B-----------------------------------------------------------------------
G-7/8.---7-5---7---5----------------------------------------------------
D------------7---7---7p5------------------------------------------------
A------------------------7p5\3-5~---------------------------------------
E-----------------------------------------------------------------------


e-----------------------------------------------------------------------
B----12(13)-10~----------------------13.--12.--10-----------------------
G-9-------------------------------------------------12--\-9-9~----------
D-----------------------------------------------------------------------
A-----------------------------------------------------------------------
E-----------------------------------------------------------------------


e-15--------------------------------------------------------------------
B----17(20)---.-17(20)---.-17(20)---.-17(20)---.-17(20)-----(17)--------
G-----------------------------------------------------------------------
D-----------------------------------------------------------------------
A-----------------------------------------------------------------------
E-----------------------------------------------------------------------


e-----------------------------------------------------------------------
B-17.--15---------------------------------------------------------------
G---------17---x-14---.-14-----14.---17-14h17p14---14.---17-14h17p14----
D----------------------------17------------------17------------------17-
A-----------------------------------------------------------------------
E-----------------------------------------------------------------------


e-----------------------------------------------------------------------
B-----------------------------------------------------------------------
G-14------14------17'-----14---14~-----h17.-----------------------------
D------17------17-------------------------------------------------------
A-----------------------------------------------------------------------
E-----------------------------------------------------------------------


e-----------------------------------------------------------------------
B-8--5------------------5-----------------------------------------------
G-------7(9)--7.--5--7-----7--5--4-h5--4-h5--4~-------------------------
D-----------------------------------------------------------------------
A-----------------------------------------------------------------------
E-----------------------------------------------------------------------


Verse again

Then the INTRO part a couple of times

 ... and the finish ...

e-----------------------------------------------------------------------
B-20(22)~~~~~~~~~~~~~~~~~~~~~~~~~~~-------------------------------------
G-----------------------------------------------------------------------
D-----------------------------------------------------------------------
A-----------------------------------------------------------------------
E-----------------------------------------------------------------------


e-----------------------------------------------------------------------
B-20-17-----------------------------------------------------------------
G-------19(21)-19-17----17----------------------------------------------
D--------------------19----19-17----------------------------------------
A--------------------------------19\17-15----17----15-------------------
E-----------------------------------------17----17----17-15h17p15h17p15-


e-----------------------------------------------------------------------
B-----------------------------------------------------------------------
G-----------------------------------------------------------------------
D-----------------------------------------------------------------------
A-----------0----------------------------0.-----------------------------
E--...--\\\-0----------------------------0.-----------------------------