20130801

ERIC CLAPTON OLD LOVE TAB (LIVE IN HYDE PARK)


Eric Clapton performs Old Love live in Hyde Park 1997.
Amazing performance, great blues guitar solos ...
Download the TAB below



ERIC CLAPTON OLD LOVE TAB


Intro part

e-----------------------------------------------------------------------
B-----------------------------------------------------------------------
G-----------------------------------------------------------------------
D--------5.---7.--------------------------------------------------------
A-5h7.------------------------------------------------------------------
E-----------------------------------------------------------------------


e-----------------------------------------------------------------------
B-5-------x---6---------------x---3-------x---3-------------------------
G-5-------x---5---------------x---5-------x---4-------------------------
D---7~----x---7---------------x---5-------x---5-------------5-----------
A---------x---5---------------x---5-------x---5-------5/7-----7\5--p3---
E-----------------------------------------------------------------------



e-----------------------------------------------------------------------
B----------------------6---------------x---3-------x---3----------------
G----------------------5---------------x---5-------x---4----------------
D----------------------7---------------x---5-------x---5----------------
A-----------3---5/7.---5---------------x---5-------x---5----------------
E-5--p3-5---------------------------------------------------------------


e-----------------------------------------------------------------------
B-----------------5---------------------------------3-------x---3-------
G-----------------5h7---5---------------------------5-------x---4-------
D-------5.---7.-----------7-7~----------------------5-------x---5-------
A-5/7-----------------------------------------------5-------x---5-------
E-----------------------------------------------------------------------


e-----------------------------------------------------------------------
B----------------------------------------6----------------x-------------
G----------------------------------------5----------------x-------------
D-------5--------------------------------7----------------x-------------
A-5/7-----7\5---p3------------3---5/7.---5----------------x-------------
E------------------5---p3-5---------------------------------------------


e-----------------------------------------------------------------------
B-3-------x---3---------------------------------------------------------
G-5-------x---4---------------------------------------------------------
D-5-------x---5---------------------------------------------------------
A-5-------x---5---------------------------------------------------------
E-------------------------3-3-3/5---------------------------------------


Verse

e-5---------------------------------------------------------------------
B-5-------x---6---------------x---3-------x---3-------------------------
G-5-------x---5---------------x---5-------x---4-------------------------
D-7-------x---7---------------x---5-------x---5-------------------------
A-7-------x---5---------------x---5-------x---5-------------------------
E-5--------------------------------------------------------3-3-3/5------


e-5---------------------------------------------------------------------
B-5-------x---6---------------x---3-------x---3-------------------------
G-5-------x---5---------------x---5-------x---4-------------------------
D-7-------x---7---------------x---5-------x---5-------------------------
A-7-------x---5---------------x---5-------x---5-------------------------
E-5--------------------------------------------------------3-3-3/5------


e-5---------------------------------------------------------------------
B-5-------x---6---------------x---3-------x---3-------------------------
G-5-------x---5---------------x---5-------x---4-------------------------
D-7-------x---7---------------x---5-------x---5-------------------------
A-7-------x---5---------------x---5-------x---5-------------------------
E-5--------------------------------------------------------3-3-3/5------


e-5---------------------------------------------------------------------
B-5-------x---6---------------x---3-------x---3-------------------------
G-5-------x---5---------------x---5-------x---4-------------------------
D-7-------x---7---------------x---5-------x---5-------------------------
A-7-------x---5---------------x---5-------x---5-------------------------
E-5----------------------------------------------------3---3-3-3\1------



Chorus

e-1------------------------------0--------------------------------------
B-1------------------------------5--------------------------------------
G-2------------------------------7--------------------------------------
D-3------------------------------6--------------------------------------
A-3------------------------------7--------------------------------------
E-1---------------------------------------------------------------------