20120913

CRAZY LITTLE THING CALLED LOVE SOLO TAB


Queen - Crazy Little Thing Called Love electric guitar solo lesson by Deaktee
Originally Brian May plays it with a Fender Telecaster using the neck pick-up
See the TAB under the video



CRAZY LITTLE THING CALLED LOVE SOLO TAB


e-/10---10-10---10-10---10----------------------------------------------
B-/10---10-10---10-10---10-13(15)--(15)--(15)(13)p11-13-11~-------------
G-----------------------------------------------------------------------
D-----------------------------------------------------------------------
A-----------------------------------------------------------------------
E-----------------------------------------------------------------------


e-------13.----/10---10-10.--------------------------10-10.-------------

B-13(15)-------/10---10-10.--12---10-----------10-12----10.-------------
G----------------------------12------11.--10h11-------------------------
D-----------------------------------------------------------------------
A-----------------------------------------------------------------------
E-----------------------------------------------------------------------


e---------13------13-------------------------------13.------------------B-13(15)----13(15)--(15)(13)p11-13.-11-------13(15)---------------------
G-----------------------------------------------------------------------
D-----------------------------------------------------------------------
A-----------------------------------------------------------------------
E-----------------------------------------------------------------------


e-----------------------------------------------------------------------B-16/17---17-15---17----------------------------------------------------
G-15/16---16--------16(17)---14-------14.---14.---16(17)(16)p14-16-14~--
D------------------------------16---14----------------------------------
A-----------------------------------------------------------------------
E-----------------------------------------------------------------------