20120831

SUMMERCAT SOLO TAB (BILLIE THE VISION AND THE DANCERS)


Billie the Vision & the Dancers - Summercat guitar solo lesson by Deaktee
This song got famous by the spanish Estrella Damm commercial with the nice girls recorded in Formentera



SUMMERCAT SOLO TAB


e-4.------------4------------------------------------------------------
B-----7.--5p4.-----7.--5p4.---5---4-4-------5---4-4--------------------
G-------------------------------------6p4.----------6p4.---------------
D----------------------------------------------------------------------
A----------------------------------------------------------------------
E----------------------------------------------------------------------


e----------------------------------------------------------------------B----------------------------------------------------------------------
G-6--p4----------6--p4-------------------------------------------------
D------6p4-6p4.-------6p4-6p4-6-4---------4-6-7---7---7-6-4.-----------
A---------------------------------------7------------------------------
E----------------------------------------------------------------------