20120912

BOB MARLEY WAITING IN VAIN SOLO TAB (REGGAE GUITAR SOLO TAB)


Bob Marley - Waiting In Vain guitar solo cover played by Deaktee
The song was recorded in 1977 and the solo was played by Junior Marvin
Standard tuning, download the TAB under the video



WAITING IN VAIN SOLO TAB

GP5 + GP6 + PDF >>

e-----------------------------------------------------------------------
B-----------------------------------------------------------------------
G-------------------------------------13.--15~~~------------------------
D------------------------13.--13/15-------------------------------------
A-----------11.--13/15--------------------------------------------------
E---11/13---------------------------------------------------------------


e-----------------------------------------------------------------------
B-----13--14.--16.--14p13----13-----------------------------------------
G---15---------------------15--13/15--13.-------------------------------
D-----------------------------------------------------------------------
A-----------------------------------------------------------------------
E-----------------------------------------------------------------------


e-----------------------------------------------------------------------
B-----------------------------------------------------------------------
G---(16)(15)--p13-15--13.--13~~~----------------------------------------
D-----------------------------------------------------------------------
A-----------------------------------------------------------------------
E-----------------------------------------------------------------------


e---13--------------------------13--------------------------------------
B--------16(18)~~~------------------16-13.--------16--------------------
G------------------------------------------16-17-----17.----------------
D-----------------------------------------------------------------------
A-----------------------------------------------------------------------
E-----------------------------------------------------------------------


e-----------------------------------------------------------------------
B-----------------------------------------------------------------------
G---15(16).---15.---15-13-15-13~~~--------------------------------------
D-----------------------------------------------------------------------
A-----------------------------------------------------------------------
E-----------------------------------------------------------------------


e--------------------------------------------------13--13-16-13-16------
B-----------------------------------13--13-16-13-16--16-----------------
G--------------------13--13-15-13-15--15--------------------------------
D-----13--13-15-13-15--15-----------------------------------------------
A---15--15--------------------------------------------------------------
E-----------------------------------------------------------------------


e---16(18).-16.-16-13.--------13-13-13.--13.----------------------------
B-----------------------------------------------------------------------
G-----------------------------------------------------------------------
D-----------------------------------------------------------------------
A-----------------------------------------------------------------------
E-----------------------------------------------------------------------