20121003

JUANES LA CAMISA NEGRA SOLO TAB


Juanes - La Camisa Negra guitar solo lesson played by Deaktee
Amazing sound with a Fender Stratocaster (neck pickup)
Download the TAB under the video



JUANES LA CAMISA NEGRA TAB


e-----------------------------------------------------------------------B-----------------------------------------------------------------------
G-1/2-2-----1/2-2-2.----1/2.---2.---2/4-4-----3/4-4-4.----3/4.---4.-----
D-3/4-4-----3/4-4-4.----3/4.---4.---4/6-6-----5/6-6-6.----5/6.---6.-----
A-----------------------------------------------------------------------
E-----------------------------------------------------------------------


e-----------------------------------------------------------------------B-------------------------------------------7.--7.--6(7)(6)-------------
G-4h6-6-----4h6-6-6.----4h6.---6.---7---7---7.--7.--6(7)(6)-------------
D-6/7-7-----6/7-7-7.----6/7.---7.---9---9-------------------9-7.--6.----
A-----------------------------------------------------------------------
E-----------------------------------------------------------------------


e-----------------------------------------------------------------------B-----------------------------------------------------------------------
G------2.--2---2-6---6p2-----2---6-6p2-----2----------------------------
D-4----------4-----------4-------------4--------------------------------
A-----------------------------------------------------------------------
E-----------------------------------------------------------------------



e-----------------------------------------------------------------------B-----------------------------------------------------------------------
G-------4-4.--4---4-7-7p4-----4---7-7p4-----4---------------------------
D-5/6-----------6---------6-------------6-------------------------------
A-----------------------------------------------------------------------
E-----------------------------------------------------------------------


e-----------------------------------------------------------------------B-----------------------------------------------------------------------
G-----2-2.--2---2-6---6p2-----2---6-6p2-----2---------------------------
D-4-----------4-----------4-------------4-------------------------------
A-----------------------------------------------------------------------
E-----------------------------------------------------------------------


e-----------------------------------------------------------------------B-----------------------------------------------------------------------
G-------4-4-6.--6/7.--6~------6p4---------------------------------------
D-5/6-----------------------------7.--6.--------------------------------
A-----------------------------------------------------------------------
E-----------------------------------------------------------------------


e-----------------------------------------------------------------------B------2.--------------------------2.-----------------------------------
G----------2---2-----------------------2---2----------------------------
D-4----------4---4-----------4-----------4---4-----------4--------------
A----------------------4---------------------------4--------------------
E-----------------------------------------------------------------------