20121130

BOB MARLEY NO WOMAN NO CRY SOLO TAB (REGGAE GUITAR SOLO TAB)


Bob Marley - No Woman No Cry guitar solo lesson played by Deaktee
This solo was originally played with a Cry Baby Wah-Wah Pedal
Download the TAB under the video



NO WOMAN NO CRY SOLO TAB

GP6 + GP5 + PDF >>

e-----------------------------------------------------------------------
B--------------------------------------13-15(17)~~----------------------
G--------------------------------12-14----------------------------------
D-------------10---------12/14------------------------------------------
A---12---10.------------------------------------------------------------
E-----------------------------------------------------------------------


e------13-15-11/12------------------------------------------------------
B-----------------13~---------------------------------------------------
G---------------------------14.--12-------------------------------------
D----------------------------------14\----------------------------------
A-----------------------------------------------------------------------
E-----------------------------------------------------------------------


e-----------------8.-8--------------------------------------------------
B-----------8--------8h10------8h10p8----8~~~---------------------------
G----/7h8h9---------------------------10--------------------------------
D-----------------------------------------------------------------------
A-----------------------------------------------------------------------
E-----------------------------------------------------------------------


e---8-----------------------------8-------------------------------------
B---8h10~--p8----10----11----10-----------------------------------------
G--------------------------------------8h9------------------------------
D-------------10----10----10---10---10-----10~--------------------------
A-----------------------------------------------------------------------
E-----------------------------------------------------------------------


e-----------------------------------------------------------------------
B----------------------------------------------------13-15-13-13~-------
G-------------------------------------------12-14-12--------------------
D----------------10.--10-12/14~-----------------------------------------
A-----10.--10h12--------------------------------------------------------
E-----------------------------------------------------------------------


e---------------------15------------------------------------------------
B---------13-15(17)-----15(17)(15).-------------------------------------
G---14-12---------------------------------------------------------------
D-----------------------------------------------------------------------
A-----------------------------------------------------------------------
E-----------------------------------------------------------------------





DOWNLOAD THE COMPLETE SOLO TAB HERE



  • click 'Free Download'
  • add your e-mail address
  • you will get an e-mail with your download links (in a few seconds)
  • download the Guitar Pro 6 tab + GP5 + PDF for free
  • and that's all ...


Guitar Pro: a complete workshop for guitarists at an affordable price