20121127

GODFATHER THEME FINGERSTYLE TAB


The Godfather theme easy fingerstyle guitar cover played by Kyösti Rautio
Nice acoustic guitar arrangement in standard tuning
Download the TAB under the video



THE GODFATHER THEME FINGERSTYLE TAB

GP5 + GP6 + PDF >>

Part 1

e-----------------0---3---0---2---0-------------------------------------
B-----5-/-8---7---------------1-------1-/-3---5---------------5---------
G-4---------------------------2-------------------4-------4-------------
D-----------------------------------------------------5-----------------
A-----------------------------------------------------------------------
E-------------0---------------0---------------0-------------------------


e-----------------0---3---0---2---0-------------------------------------
B-----5-/-8---7---------------0-------0---------------------------------
G-4---------------------------0-----------0---2-------------------------
D-------------------------------------------------2-------2-------------
A---------------------------------------------0-------3-------0---------
E-------------0---------------3-----------------------------------------


e-------------------------------------------------------------0---------
B---------4---7---------------7-------------------0-------0-------------
G-2-/-5-----------5-------5-----------5-/-8---9-------0-----------------
D---------------------7-----------7-------------------------------------
A-------------0---------------------------------------------------------
E---------------------------------------------0-------------------------



e-----------------------------------------------------------------------
B---------3---1---0---3---1---1---0---0---------------------------------
G-----0-------0---------------2-----------------------------------------
D-2---------------------------------------1---2-------------------------
A-------------2---------------2-------------------2-------2-------------
E---------------------------------------------0-------3-------0---------


Part 2

e-----------------0---3---0---2---0-------------------------------------
B-----5-/-8---7---------------1-------1-/-3---5---------------5---------
G-4---------------------------2-------------------4-------4-------------
D-----------------------------------------------------5-----------------
A-----------------------------------------------------------------------
E-------------0---------------0---------------0-------------------------


e-----------------0---3---0---2---0-------------------------------------
B-----5-/-8---7---------------0-------0---------------------------------
G-4---------------------------0-----------0---2-------------------------
D-------------------------------------------------2-------2-------------
A---------------------------------------------0-------3-------0---------
E-------------0---------------3-----------------------------------------


e-------------------------------------------------------------0---------
B---------4---7---------------7-------------------0-------0-------------
G-2-/-5-----------5-------5-----------5-/-8---9-------0-----------------
D---------------------7-----------7-------------------------------------
A-------------0---------------------------------------------------------
E---------------------------------------------0-------------------------


e-----------------------------------------------------------------------
B---------3---1---0---3---1---1---0---0---------------------------------
G-----0-------0---------------2-----------------------------------------
D-2---------------------------------------1---2-------------------------
A-------------2---------------2-------------------2-------2-------------
E---------------------------------------------0-------3-------0---------