20121227

AVICII LEVELS FINGERSTYLE GUITAR TAB


Avicii - Levels fingerstyle guitar cover and guitar lesson
It's in standard tuning with CAPO on the 4th fret
Download the TAB under the video



AVICII LEVELS FINGERSTYLE TAB


e-5---3---0-------------------------------------------------------------
B-------------3---1---1.------1---1---1---1---0---0---1---1.------------
G-------------2---2---2.------0---0---0---0---0---0---0---0.------------
D-------------2---2---2.------2---2---2---2---------------3.------------
A-------------0---0---0.------3---3---3---3-----------------------------
E---------------------------------------------3---3---3-----------------


e-5---3---0-------------------------------------------------------------
B-------------3---1---1.------1---1---1---1-----------------------------
G-------------2---2---2.------0---0---0---0---2---2---0---0.------------
D-------------2---2---2.------2---2---2---2---0---0---0-----------------
A-------------0---0---0.------3---3---3---3-----------------------------
E---------------------------------------------3---3---3---1.------------


e-5---3---0-------------------------------------------------------------
B-------------3---1---1.------1---1---1---1---0---0---1---1.------------
G-------------2---2---2.------0---0---0---0---0---0---0---0.------------
D-------------2---2---2.------2---2---2---2---------------3.------------
A-------------0---0---0.------3---3---3---3-----------------------------
E---------------------------------------------3---3---3-----------------




e-5---3---0-------------------------------------------------------------
B-------------3---1---1.------1---1---1---1-----------------------------
G-------------2---2---2.------0---0---0---0---2---2---0---0.------------
D-------------2---2---2.------2---2---2---2---0---0---0-----------------
A-------------0---0---0.------3---3---3---3-----------------------------
E---------------------------------------------3---3---3---1.------------