20121223

BILLY IDOL WINTER WONDERLAND SOLO TAB


Billy Idol - Winter Wonderland from the album called Happy Holidays
Nice guitar solo parts played by Brian Tichy
Download the TAB under the video



BILLY IDOL WINTER WONDERLAND TAB

PDF + GUITAR PRO >>


Intro

e------------13--------------------------10-----------------------------
B---13(15)------(15).--13~-------9(11)------(11).--9~-------------------
G-----------------------------------------------------------------------
D-----------------------------------------------------------------------
A-----------------------------------------------------------------------
E-----------------------------------------------------------------------


e-----------------------------------------------------------------------
B------------8-8---11---------------------------------------------------
G---10(12)------------10---10-10-----8~---------------------------------
D-----------------------------------------------------------------------
A-----------------------------------------------------------------------
E-----------------------------------------------------------------------


Verse 1

e-----------------------------------------------------------------------
B-------13-11~--------------13-11~-------/11.--13-11~-------------13-11~
G-/12.----------------/12.----------------------------------/13.--------
D-----------------------------------------------------------------------
A-----------------------------------------------------------------------
E-----------------------------------------------------------------------



e-----------------------------------------------------------------------
B---13/15.--15-15.--13~---------------11.---11-11.--9~------------------
G-----------------------------------------------------------------------
D-----------------------------------------------------------------------
A-----------------------------------------------------------------------
E-----------------------------------------------------------------------


e-----------------------------------------------------------------------
B-----------------------------------------------------------------------
G---10/12.--12-12.---12-10.--10-10.--10-8~------------------------------
D-----------------------------------------------------------------------
A-----------------------------------------------------------------------
E-----------------------------------------------------------------------

 etc ...