20121204

ALTERNATE PICKING EXERCISE TAB


John Petrucci style alternate picking exercise played by Carl Brown
Fast triplets with up-down-up and down-up-down picking
See the TAB under the video



TAB

                                       
e-----------------------------------------------------------------------
B-----------------------------------------------------------------------
G-4---4--6---6--7---7--6---6--4---4--7---7--6---6--4---4----------------
D---5------5------5------5------5------5------5------5------------------
A-----------------------------------------------------------------------
E-----------------------------------------------------------------------


e-----------------------------------------------------------------------
B-----------------------------------------------------------------------
G-9---9--7---7--6---6--7---7--9---9--7---7--6---6--7---7----------------
D---7------7------7------7------7------7------7------7------------------
A-----------------------------------------------------------------------
E-----------------------------------------------------------------------


e-----------------------------------------------------------------------
B-----------------------------------------------------------------------
G-4---4--6---6--7---7--6---6--4---4--7---7--6---6--4---4----------------
D---5------5------5------5------5------5------5------5------------------
A-----------------------------------------------------------------------
E-----------------------------------------------------------------------



e-----------------------------------------------------------------------
B-----------------------------------------------------------------------
G-9---9--7---7--6---6--7---7--9---9--7---7--6---6--7---7----------------
D---7------7------7------7------7------7------7------7------------------
A-----------------------------------------------------------------------
E-----------------------------------------------------------------------


e-----------------------------------------------------------------------
B-----------------------------------------------------------------------
G-7---7--9---9--11---11--9---9--7---7--9---9--11---11--9---9------------
D---9------9-------9-------9------9------9-------9-------9--------------
A-----------------------------------------------------------------------
E-----------------------------------------------------------------------


e-----------------------------------------------------------------------
B-----------------------------------------------------------------------
G-12--12--11--11--9----9--11--11--12--12--11--11--9----9--11--11--------
D---10------10------10------10------10------10------10------10----------
A-----------------------------------------------------------------------
E-----------------------------------------------------------------------


e-----------------------------------------------------------------------
B-----------------------------------------------------------------------
G-11--11--12--12--14--14--12--12----11----14--14--12--12--11--11--------
D---12------12------12------12----12--12----12------12------12----------
A-----------------------------------------------------------------------
E-----------------------------------------------------------------------


e-----------------------------------------------------------------------
B-----------------------------------------------------------------------
G-16--16--14--14--13--13--14--14--16--16--14--14--13--13--14--14--------
D---14------14------14------14------14------14------14------14----------
A-----------------------------------------------------------------------
E-----------------------------------------------------------------------