20121221

SLASH THE GODFATHER THEME TAB (LIVE IN TOKYO)


Slash plays the Godfather theme song with his Gibson Les Paul live in Tokyo
It's in half-step down tuning and the main melody is transcribed
Download the TAB under the video



SLASH THE GODFATHER THEME TAB

PDF >>

eb------------------------------------------------------------------
Bb-15~~----14-15-16~~----15---15------------------------------------
Gb---------------------------------15~~~-----\----------------------
Db------------------------------------------------------------------
Ab------------------------------------------------------------------
Eb------------------------------------------------------------------


eb------------------------------------------------------------------
Bb-15~~----14-15-16~~----15---15------------------------------------
Gb---------------------------------14~~~------\---------------------
Db------------------------------------------------------------------
Ab------------------------------------------------------------------
Eb------------------------------------------------------------------


eb------------------------------------------------------------------
Bb-15~~----14-15-18~~----15---14---(16)---(14)~~~-------------------
Gb------------------------------------------------------------------
Db------------------------------------------------------------------
Ab------------------------------------------------------------------
Eb------------------------------------------------------------------



eb------------------------------------------------------------------
Bb-14(15)---(15)(14)--------------------14(15)---(14)---------------
Gb---------------------14(15)(14)(15)-------------------14~~~-------
Db------------------------------------------------------------------
Ab------------------------------------------------------------------
Eb------------------------------------------------------------------


eb------10---13---12--p10---13--p10---12--p10-----------------------
Bb----------------------------------------------11------13-10~~~----
Gb-14.--------------------------------------------------------------
Db------------------------------------------------------------------
Ab------------------------------------------------------------------
Eb------------------------------------------------------------------


eb------10---13---12--p10---13--p10---12--p10-----------------------
Bb-10.------------------------------------------10------9-8~~~~~----
Gb------------------------------------------------------------------
Db------------------------------------------------------------------
Ab------------------------------------------------------------------
Eb------------------------------------------------------------------


eb-----6---10---10(12)------------------6---9---9(10)~~~~~----------
Bb-8--------------------------------8-------------------------------
Gb------------------------------------------------------------------
Db------------------------------------------------------------------
Ab------------------------------------------------------------------
Eb------------------------------------------------------------------


eb------------------------------------------------------------------
Bb------------------------------------------------------------------
Gb-14.--(15)(14).--(17)-(15)---14(15)~~-14~~~---------\10-----------
Db----------------------------------------------------------11---12~
Ab------------------------------------------------------------------
Eb------------------------------------------------------------------


eb-10---10---9---8~~~---12---8--------------------------------------
Bb-------------------------------11---10---(11)(10)~~~--------------
Gb------------------------------------------------------------------
Db------------------------------------------------------------------
Ab------------------------------------------------------------------
Eb------------------------------------------------------------------


eb------------------------------------------------------------------
Bb-8(10)------(9)---8~~~~~~-----------------------------------------
Gb------------------------------------------------------------------
Db------------------------------------------------------------------
Ab------------------------------------------------------------------
Eb------------------------------------------------------------------


eb------------------------------------------------------------------
Bb-(11)------(10)-10p8-10---(11)(10)~~~~~~~-------------------------
Gb------------------------------------------------------------------
Db------------------------------------------------------------------
Ab------------------------------------------------------------------
Eb------------------------------------------------------------------


and rock it........