20121212

THE EAGLES TAKE IT EASY SOLO TAB (COUNTRY GUITAR SOLO TAB)


The Eagles - Take It Easy guitar solo is about 1:44 - 2:14 in the original song
Great country guitar solo in standard tuning - played by Bernie Leadon
Download the TAB under the video



TAKE IT EASY SOLO TAB

GP5 + GP6 + PDF >>

e-----------------------------------------------------------------------
B-------3-----3---3-3h5---3---3\1-0---1/3--3~------------1--------------
G---2/4-----4-----------4-----4\2-0---2/4--4~---4\2--0-2-0-------0------
D------------------------------------------------------------0-2--------
A-----------------------------------------------------------------------
E-----------------------------------------------------------------------


e-----------------------------------------------------------------------
B-----------3------------------10-------------------8-----10(12)---(12)~
G-----0-2/4---4~---4\2-0-0-2/11--11~---11\9-7-7-8/9-----9---------------
D---2-------------------------------------------------------------------
A-----------------------------------------------------------------------
E-----------------------------------------------------------------------


e------------------------------------12---12---10h12-12-10h12-10--------
B---(12)~---(12)~---(12)(10)p8-10/12-12---12---10h12-12-10h12-10--------
G-----------------------------------------------------------------------
D-----------------------------------------------------------------------
A-----------------------------------------------------------------------
E-----------------------------------------------------------------------



e----------------------------------------------10-----------------------
B--10----------------------8---10-8---10(12)-----10(12)---(12)(10)p8-8--
G---9(11)---(11)(9)-7--8/9--------------------------------------------9-
D--------------------9--------------------------------------------------
A-----------------------------------------------------------------------
E-----------------------------------------------------------------------


e----------7-8---7-5----------------------------------------------------
B---8h10-------------8------8-------------------------------------------
G--------------------7(9)----(9)~---(9)(7)p5-5--------------------------
D-------------------------------------------7--7------------------------
A-----------------------------------------------------------------------
E-----------------------------------------------------------------------


e-------------10-----10-----10-----10--------14-------------------------
B---10(12)---(12)---(12)---(12)---(12)(10)p8-13(15)~--------------------
G-----------------------------------------------------------------------
D-----------------------------------------------------------------------
A-----------------------------------------------------------------------
E-----------------------------------------------------------------------






DOWNLOAD THIS SOLO TAB IN GUITAR PRO



  • click 'Free Download'
  • add your e-mail address
  • you will get an e-mail with your download links (in a few seconds)
  • download the Guitar Pro 6 tab + GP5 + PDF for free
  • and that's all ...


Guitar Pro: a complete workshop for guitarists at an affordable price