20130106

NOVEMBER RAIN SOLO TAB (ELECTRIC GUITAR SOLO TAB)


Guns N Roses - November Rain electric guitar solo cover played by Thomas75s
It's in standard tuning however the original solo is in half-step down tuning
Download the TAB under the video



NOVEMBER RAIN SOLO TAB

GP5 + GP6 + PDF >>

Middle Part

e----------------------------------8------------------------------------
B---x-x-8(10)--------(10)(8)(10)-----(10)-----(8)p6-8(10)(8)(10)--------
G-----------------------------------------------------------------------
D-----------------------------------------------------------------------
A-----------------------------------------------------------------------
E-----------------------------------------------------------------------


e-----------------8---------------------------/8~~----------------------
B---(10)(8)(10)-----(10)-(8)-5(6)(5)~~----------------------------------
G-----------------------------------------------------------------------
D-----------------------------------------------------------------------
A-----------------------------------------------------------------------
E-----------------------------------------------------------------------


e-----------------------------------------------------------------------
B---5(6)(5)(6)-------(5)~~--------------8-------------------------------
G-----------------------------7p5-7/9-----9\7------5--------------------
D-----------------------------------------------------------------------
A-----------------------------------------------------------------------
E-----------------------------------------------------------------------



e------------------------------8----------------------------------------
B---8(10)--------(10)(8)(10)-----(10)-----(8)p6-8(10)(8)(10)------------
G-----------------------------------------------------------------------
D-----------------------------------------------------------------------
A-----------------------------------------------------------------------
E-----------------------------------------------------------------------


e-----------------8-8(10)---(8)---10(12)~--------8h10p8----8------------
B---(10)(8)(10)-----------------------------------------10--/13~~-------
G-----------------------------------------------------------------------
D-----------------------------------------------------------------------
A-----------------------------------------------------------------------
E-----------------------------------------------------------------------


e---13p12--13p12--13(15)---13~------------12-13---12h13p12--------------
B--------13-----13---------------------15------------------15~----------
G-----------------------------------------------------------------------
D-----------------------------------------------------------------------
A-----------------------------------------------------------------------
E-----------------------------------------------------------------------


e------------------------------------------------19(20)~----------------
B---15-17-18(20)-------18-17-17(18)---(17)------------------------------
G-----------------------------------------------------------------------
D-----------------------------------------------------------------------
A-----------------------------------------------------------------------
E-----------------------------------------------------------------------


e---19-19-19p17-17-17\15-15-15\13-13-13p12.--12-h13-----12h13~~---------
B--------------------------------------------------15-------------------
G-----------------------------------------------------------------------
D-----------------------------------------------------------------------
A-----------------------------------------------------------------------
E-----------------------------------------------------------------------





DOWNLOAD THE COMPLETE SOLO TAB HERE



  • click 'Free Download'
  • add your e-mail address
  • you will get an e-mail with your download links (in a few seconds)
  • download the Guitar Pro 6 tab + GP5 + PDF for free
  • and that's all ...


Guitar Pro: a complete workshop for guitarists at an affordable price