20130119

SPOTNICKS JOHNNY GUITAR TAB


The Spotnicks - Johnny Guitar cover played by BurnsErnst
Classic vintage guitar instrumental song with backing track
Download the TAB under the video



THE SPOTNICKS JOHNNY GUITAR TAB

GP5 + GP6 + PDF >>

Part 1

e-------------0--------0-1/3------1-1-3-1h3p1-0-------------------------
B-----0-0-1-1--------3--------------------------------------------------
G-2-2-------------------------------------------------------------------
D-----------------------------------------------------------------------
A-----------------------------------------------------------------------
E-----------------------------------------------------------------------


e-------------0--------0-1/5------3\---0--------------------------------
B-----0-0-1-1--------3--------------------------------------------------
G-2-2-------------------------------------------------------------------
D-----------------------------------------------------------------------
A-----------------------------------------------------------------------
E-----------------------------------------------------------------------


e-0-5-7-8--8-8-8--8--------8-7-5-8--8-8-8--8--------8-7-5-8\---0--------
B-----------------------------------------------------------------------
G-----------------------------------------------------------------------
D-----------------------------------------------------------------------
A-----------------------------------------------------------------------
E-----------------------------------------------------------------------



e-8--7--5--8~------8--7--5--7~-------7--5--4--5~------------------------
B-----------------------------------------------------------------------
G-----------------------------------------------------------------------
D-----------------------------------------------------------------------
A-----------------------------------------------------------------------
E-----------------------------------------------------------------------


e-5-5h7-5-3--------3-3h5-3-1--------1-3-5-3-1-0----12---12---12---------
B-----------------------------------------------------------------------
G-----------------------------------------------------------------------
D-----------------------------------------------------------------------
A-----------------------------------------------------------------------
E-----------------------------------------------------------------------


Part 2

e-------------0--------0-1/3------1-1-3-1h3p1-0-------------------------
B-----0-0-1-1--------3--------------------------------------------------
G-2-2-------------------------------------------------------------------
D-----------------------------------------------------------------------
A-----------------------------------------------------------------------
E-----------------------------------------------------------------------


e-------------0--------0-1-1/5------3\---0------------------------------
B-----0-0-1-1--------3--------------------------------------------------
G-2-2-------------------------------------------------------------------
D-----------------------------------------------------------------------
A-----------------------------------------------------------------------
E-----------------------------------------------------------------------





DOWNLOAD THE COMPLETE TAB HERE



  • click 'Free Download'
  • add your e-mail address
  • you will get an e-mail with your download links (in a few seconds)
  • download the Guitar Pro 6 tab + GP5 + PDF for free
  • and that's all ...


Guitar Pro: a complete workshop for guitarists at an affordable price