20130208

DENIS SALGADO KISS FROM A ROSE TAB (ELECTRIC GUITAR TAB)


Seal - Kiss From A Rose instrumental electric guitar cover by Denis Salgado
It's played in standard tuning with an amazing sound
Download the TAB under the video



DENIS SALGADO KISS FROM A ROSE TAB


Intro

e-----------------------------------------------------------------------
B-----12-13~-----15p13.--12---10.--8h10-10~----p8/10~-------------------
G-/14-------------------------------------------------------------------
D-----------------------------------------------------------------------
A-----------------------------------------------------------------------
E-----------------------------------------------------------------------


e-----------------------------------------------------------------------
B-----12-13~-----15p13.--12\8---10/12.--10~-----------------------------
G-/14-------------------------------------------------------------------
D-----------------------------------------------------------------------
A-----------------------------------------------------------------------
E-----------------------------------------------------------------------


e-----------------------------------------------------------------------
B-----12-13~-----15p13.--12---10.--8h10-10~----p8/10~-------------------
G-/14-------------------------------------------------------------------
D-----------------------------------------------------------------------
A-----------------------------------------------------------------------
E-----------------------------------------------------------------------




e-----------------------------------------------------------------------
B-----12-13~-----15p13.--12\8---10/12.--10~-----------------------------
G-/14-------------------------------------------------------------------
D-----------------------------------------------------------------------
A-----------------------------------------------------------------------
E-----------------------------------------------------------------------


Verse 1

e-----------------------------------------------------------------------
B-----------------------------------------------------------------------
G-6(7)(6)~-----6(7)(6)(7)(6)-7-9~------9-7/9~--7.--6-9~-----------------
D----------------------------------7------------------------------------
A-----------------------------------------------------------------------
E-----------------------------------------------------------------------


e-----------------------------------------------------------------------
B-9(10)(9)~-------------------------------------------------------------
G---------------9----------7.--9~------9-7/9~----7.--6-9-4/6~-----------
D----------------9/11~-------------7------------------------------------
A-----------------------------------------------------------------------
E-----------------------------------------------------------------------


e-9(10)(9)~-------------------------------------------------------------
B---------------10--------7.--7(8)---(7)(8)(7)p5.--7--p5.---------------
G------------------9~--------------------------------------7---/9~------
D-----------------------------------------------------------------------
A-----------------------------------------------------------------------
E-----------------------------------------------------------------------


e-----------------------------------------------------------------------
B-9(10)(9)--------9(10)(9)----------------------------------------------
G----------6~--------------5~---------/5~---7p5.--4~--------------------
D---------------------------------7.------------------7~--5~------------
A-----------------------------------------------------------------------
E-----------------------------------------------------------------------


e-----------------------------------------------------------------------
B-----------------------------------------------------------------------
G-/5~---7p5.--4~----------/6~-------------------------------------------
D-----------------7~--5~------------------------------------------------
A-----------------------------------------------------------------------
E-----------------------------------------------------------------------


Chorus

e-/19(20)---------------------------------------------------------------
B-----------20(22)~--------(22)(20)p17-20p17-/20\17-20-17---------------
G-----------------------------------------------------------------------
D-----------------------------------------------------------------------
A-----------------------------------------------------------------------
E-----------------------------------------------------------------------


e-----------------------------------------------------------------------
B-20(22)~--20~--17------------------------------------------------------
G------------------19(21)(19)~--17--/16-14~\----------------------------
D-----------------------------------------------------------------------
A-----------------------------------------------------------------------
E-----------------------------------------------------------------------