20130321

THE THRILL IS GONE SOLO TAB (MARTY SCHWARTZ)


BB King - The Thrill Is Gone blues guitar lesson played by Marty Schwartz
There is an improvisation solo until 0:30 that is transcribed
Download the TAB under the video



THE THRILL IS GONE SOLO TAB


e-10'---7~--------------7'----------------------------------------------
B-------------------------------10--------------------------------------
G---------------9(11)--------------9(11)-7-9----------------------------
D--------------------------------------------9-9~-----------------------
A-----------------------------------------------------------------------
E-----------------------------------------------------------------------


e-------------------7---------------------------------------------------
B-----------------7---10p7----------------------------------------------
G-------7-9(11)------------9(11)-9-7---7-9h10p9p7---7-------------------
D---7h9------------------------------9------------9---9p7---------------
A-9-------------------------------------------------------9\7p5-7~------
E-----------------------------------------------------------------------



e-------------------5/7~~------12(14)------10.--9.--10\9/10\9/10~-------
B-----------4-5-7/8-----------------------------------------------------
G-----------------------------------------------------------------------
D-------4h5-------------------------------------------------------------
A-5h6h7-----------------------------------------------------------------
E-----------------------------------------------------------------------


e-----------------------------------------------------------------------
B-12-10-12~---10----------------7---------------------------------------
G----------------11\9p7-9(11)-----9(11)(9)p7---7~-----------------------
D--------------------------------------------9---------9-7---7----------
A----------------------------------------------------------9------------
E-----------------------------------------------------------------------


e-----------------------------------------------------------------------
B-------8p7---8-10-6/7--------------------------------------------------
G-7h9p7-----9------------9-7---9-7-----7--------------------------------
D----------------------------9-----9-7---9-7----------------------------
A--------------------------------------------9\7p5-7-5---5-7/8-5-7p5----
E------------------------------------------------------7----------------


e-----------------------------------------------------------------------
B-----------------------------------------------------------------------
G-----------------------------------------------------------------------
D-----------------------------------------------------------------------
A-----------------------------------------------------------------------
E-7-5-7~------5-7-5h7-5h7-5h7p5-7-5-7~------////-\\\\-------------------