20130311

SMOKE ON THE WATER SOLO TAB (GUITAR SOLO TAB)


Deep Purple - Smoke On The Water guitar solo cover played by Sean Boothe
Perfect cover of the classic Ritchie Blackmore solo
Download the TAB under the video



DEEP PURPLE SMOKE ON THE WATER SOLO TAB

GP5 + GP6 + PDF >>

e-----------------------------------------------------------------------
B-------------------------(15)(13)p11'--------11'-----------------------
G-----------10.--12~------------------12~-------------------------------
D---10/12---------------------------------------------------------------
A-----------------------------------------------------------------------
E-----------------------------------------------------------------------


e-----------------------------------------------------------------------
B------------------------11.---11(13)------11.---10.---8.---10.---------
G------------10.---12.--------------------------------------------------
D---10/12.--------------------------------------------------------------
A-----------------------------------------------------------------------
E-----------------------------------------------------------------------


e-----------------------------------------------------------------------
B---8h10p8\6----8.---6.--------6.---6.---8.---------8~~-----------------
G-------------------------8.------------------10.-----------------------
D-----------------------------------------------------------------------
A-----------------------------------------------------------------------
E-----------------------------------------------------------------------



e--------------8.-----------------------8.------------------------------
B---8.---11.--------11'---11(13)~------------8.---11.-------------------
G-----------------------------------------------------------------------
D-----------------------------------------------------------------------
A-----------------------------------------------------------------------
E-----------------------------------------------------------------------


e------------8----------------------------------------------------------
B----------8---11-10-8--------------------------------------------------
G---10(12)-------------11-10-8----10-8\7-----------------------5.-------
D------------------------------10--------10-8-7-5.---8.---7.------------
A-----------------------------------------------------------------------
E-----------------------------------------------------------------------