20130316

ERIC CLAPTON I SHOT THE SHERIFF SOLO TAB (LIVE)


Eric Clapton plays I Shot The Sheriff live at Crossroads Guitar Festival in 2010
There is an intro solo at 0:22 and another great guitar solo around 5:20
Download the TAB of these solos below



ERIC CLAPTON I SHOT THE SHERIFF SOLO TAB

PDF + GUITAR PRO >>

Intro solo

e-----------------------------------------------------------------------
B-----------------------------------------------------------------------
G----------3---5-3h5p3---3---5p3-----3'---5.----------------------------
D-x---5.---------------5-----------5------------------------------------
A-----------------------------------------------------------------------
E-----------------------------------------------------------------------


e-----------------------------------------------------------------------
B-13(15)------13-11-13-11-------------------------11--------------------
G-------------------------12-12~---10.------10-12----12~---10.----------
D-----------------------------------------------------------------------
A-----------------------------------------------------------------------
E-----------------------------------------------------------------------


e-----------------------------------------------------------------------
B-------11----13----11'-------------------------------------------------
G-10-12----12----12---------12.-----------------------------------------
D-----------------------------------------------------------------------
A-----------------------------------------------------------------------
E-----------------------------------------------------------------------


e-----------------------------------------------------------------------
B-------13-------11.----------------------------------------------------
G-10-12---------------12p10-12~------10.--------------------------------
D-----------------------------------------------------------------------
A-----------------------------------------------------------------------
E-----------------------------------------------------------------------


e-----------------------------------------------------------------------
B-----------------------------------------------------------------------
G-10---12-10h12p10----10---12-10h12p10----------------------------------
D------------------12------------------12-------------------------------
A-----------------------------------------------------------------------
E-----------------------------------------------------------------------


e-----------------------------------------------------------------------
B-----------------------------------------------------------------------
G-10---12-10h12p10----10---12-10h12p10----------------------------------
D------------------12------------------12-------------------------------
A-----------------------------------------------------------------------
E-----------------------------------------------------------------------


e-----------------------------------------------------------------------
B-----------------------------------------------------------------------
G-10---12-10h12p10----10-12(14)------12.---10.--------------------------
D------------------12----------------------------12.--------------------
A-----------------------------------------------------------------------
E-----------------------------------------------------------------------


e-----------------------------------------------------------------------
B-----------------------------------------------------------------------
G-----------------------------------------------------------------------
D-10p8----8--------------------8----------------------------------------
A------10------10.---8---10.-------10~------8.--------------------------
E-----------------10----------------------------------------------------

 etc ...