20130318

IZ SOMEWHERE OVER THE RAINBOW TAB


IZ - Somewhere Over The Rainbow acoustic guitar lesson played by Deaktee
Use the G B and E strings on your guitar - so it sounds like a ukulele
Download the TAB under the video



ISRAEL "IZ" KAMAKAWIWO'OLE SOMEWHERE OVER THE RAINBOW TAB

PDF >> 

Intro

      C               Em              Am              F

e-x-x-8-8-x-x-8-8-x-x-7-7-x-x-7-7-x-x-5-5-x-x-5-5-x-x-5-5-x-x-5-5-------
B-x-x-8-8-x-x-8-8-x-x-8-8-x-x-8-8-x-x-5-5-x-x-5-5-x-x-6-6-x-x-6-6-------
G-x-x-9-9-x-x-9-9-x-x-9-9-x-x-9-9-x-x-5-5-x-x-5-5-x-x-5-5-x-x-5-5-------
D-----------------------------------------------------------------------
A-----------------------------------------------------------------------
E-----------------------------------------------------------------------

      C               Em              Am              F add9

e-x-x-8-8-x-x-8-8-x-x-7-7-x-x-7-7-x-x-5-5-x-x-5-5-x-x-5-5-x-x-5-5-------
B-x-x-8-8-x-x-8-8-x-x-8-8-x-x-8-8-x-x-5-5-x-x-5-5-x-x-8-8-x-x-8-8-------
G-x-x-9-9-x-x-9-9-x-x-9-9-x-x-9-9-x-x-5-5-x-x-5-5-x-x-5-5-x-x-5-5-------
D-----------------------------------------------------------------------
A-----------------------------------------------------------------------
E-----------------------------------------------------------------------



      F

e-x-x-5-5-x-x-5-5-x-x-5-5-x-x-5-5---------------------------------------
B-x-x-6-6-x-x-6-6-x-x-6-6-x-x-6-6---------------------------------------
G-x-x-5-5-x-x-5-5-x-x-5-5-x-x-5-5---------------------------------------
D-----------------------------------------------------------------------
A-----------------------------------------------------------------------
E-----------------------------------------------------------------------


Huuuhuuuuuuuuuuuuuuuu

      C                               Em

e-x-x-8-8-x-x-8-8-x-x-8-8-x-x-8-8-x-x-7-7-x-x-7-7-x-x-7-7-x-x-7-7-------
B-x-x-8-8-x-x-8-8-x-x-8-8-x-x-8-8-x-x-8-8-x-x-8-8-x-x-8-8-x-x-8-8-------
G-x-x-9-9-x-x-9-9-x-x-9-9-x-x-9-9-x-x-9-9-x-x-9-9-x-x-9-9-x-x-9-9-------
D-----------------------------------------------------------------------
A-----------------------------------------------------------------------
E-----------------------------------------------------------------------

      F                               C

e-x-x-5-5-x-x-5-5-x-x-5-5-x-x-5-5-x-x-8-8-x-x-8-8-x-x-8-8-x-x-8-8-------
B-x-x-6-6-x-x-6-6-x-x-6-6-x-x-6-6-x-x-8-8-x-x-8-8-x-x-8-8-x-x-8-8-------
G-x-x-5-5-x-x-5-5-x-x-5-5-x-x-5-5-x-x-9-9-x-x-9-9-x-x-9-9-x-x-9-9-------
D-----------------------------------------------------------------------
A-----------------------------------------------------------------------
E-----------------------------------------------------------------------

      F                               E7

e-x-x-5-5-x-x-5-5-x-x-5-5-x-x-5-5-x-x-7-7-x-x-7-7-x-x-7-7-x-x-7-7-------
B-x-x-6-6-x-x-6-6-x-x-6-6-x-x-6-6-x-x-9-9-x-x-9-9-x-x-9-9-x-x-9-7-------
G-x-x-5-5-x-x-5-5-x-x-5-5-x-x-5-5-x-x-7-7-x-x-7-7-x-x-7-7-x-x-7-7-------
D-----------------------------------------------------------------------
A-----------------------------------------------------------------------
E-----------------------------------------------------------------------

      Am                              F

e-x-x-5-5-x-x-5-5-x-x-5-5-x-x-5-5-x-x-5-5-x-x-5-5-x-x-5-5-x-x-5-5-------
B-x-x-5-5-x-x-5-5-x-x-5-5-x-x-5-5-x-x-6-6-x-x-6-6-x-x-6-6-x-x-6-6-------
G-x-x-5-5-x-x-5-5-x-x-5-5-x-x-5-5-x-x-5-5-x-x-5-5-x-x-5-5-x-x-5-5-------
D-----------------------------------------------------------------------
A-----------------------------------------------------------------------
E-----------------------------------------------------------------------


Verse

      C                               Em

e-x-x-8-8-x-x-8-8-x-x-8-8-x-x-8-8-x-x-7-7-x-x-7-7-x-x-7-7-x-x-7-7-------
B-x-x-8-8-x-x-8-8-x-x-8-8-x-x-8-8-x-x-8-8-x-x-8-8-x-x-8-8-x-x-8-8-------
G-x-x-9-9-x-x-9-9-x-x-9-9-x-x-9-9-x-x-9-9-x-x-9-9-x-x-9-9-x-x-9-9-------
D-----------------------------------------------------------------------
A-----------------------------------------------------------------------
E-----------------------------------------------------------------------

      F                               C

e-x-x-5-5-x-x-5-5-x-x-5-5-x-x-5-5-x-x-8-8-x-x-8-8-x-x-8-8-x-x-8-8-------
B-x-x-6-6-x-x-6-6-x-x-6-6-x-x-6-6-x-x-8-8-x-x-8-8-x-x-8-8-x-x-8-8-------
G-x-x-5-5-x-x-5-5-x-x-5-5-x-x-5-5-x-x-9-9-x-x-9-9-x-x-9-9-x-x-9-9-------
D-----------------------------------------------------------------------
A-----------------------------------------------------------------------
E-----------------------------------------------------------------------

      F                               C

e-x-x-5-5-x-x-5-5-x-x-5-5-x-x-5-5-x-x-8-8-x-x-8-8-x-x-8-8-x-x-8-8-------
B-x-x-6-6-x-x-6-6-x-x-6-6-x-x-6-6-x-x-8-8-x-x-8-8-x-x-8-8-x-x-8-8-------
G-x-x-5-5-x-x-5-5-x-x-5-5-x-x-5-5-x-x-9-9-x-x-9-9-x-x-9-9-x-x-9-9-------
D-----------------------------------------------------------------------
A-----------------------------------------------------------------------
E-----------------------------------------------------------------------

      G                               Am

e-x-x-7-7-x-x-7-7-x-x-7-7-x-x-7-7-x-x-5-5-x-x-5-5-x-x-5-5-x-x-5-5-------
B-x-x-8-8-x-x-8-8-x-x-8-8-x-x-8-8-x-x-5-5-x-x-5-5-x-x-5-5-x-x-5-5-------
G-x-x-7-7-x-x-7-7-x-x-7-7-x-x-7-7-x-x-5-5-x-x-5-5-x-x-5-5-x-x-5-5-------
D-----------------------------------------------------------------------
A-----------------------------------------------------------------------
E-----------------------------------------------------------------------

      F

e-x-x-5-5-x-x-5-5-x-x-5-5-x-x-5-5---------------------------------------
B-x-x-6-6-x-x-6-6-x-x-6-6-x-x-6-6---------------------------------------
G-x-x-5-5-x-x-5-5-x-x-5-5-x-x-5-5---------------------------------------
D-----------------------------------------------------------------------
A-----------------------------------------------------------------------
E-----------------------------------------------------------------------


Chorus

      C                               G

e-x-x-8-8-x-x-8-8-x-x-8-8-x-x-8-8-x-x-7-7-x-x-7-7-x-x-7-7-x-x-7-7-------
B-x-x-8-8-x-x-8-8-x-x-8-8-x-x-8-8-x-x-8-8-x-x-8-8-x-x-8-8-x-x-8-8-------
G-x-x-9-9-x-x-9-9-x-x-9-9-x-x-9-9-x-x-7-7-x-x-7-7-x-x-7-7-x-x-7-7-------
D-----------------------------------------------------------------------
A-----------------------------------------------------------------------
E-----------------------------------------------------------------------

      Am                              F

e-x-x-5-5-x-x-5-5-x-x-5-5-x-x-5-5-x-x-5-5-x-x-5-5-x-x-5-5-x-x-5-5-------
B-x-x-5-5-x-x-5-5-x-x-5-5-x-x-5-5-x-x-6-6-x-x-6-6-x-x-6-6-x-x-6-6-------
G-x-x-5-5-x-x-5-5-x-x-5-5-x-x-5-5-x-x-5-5-x-x-5-5-x-x-5-5-x-x-5-5-------
D-----------------------------------------------------------------------
A-----------------------------------------------------------------------
E-----------------------------------------------------------------------