20130315

THE KILLERS MR BRIGHTSIDE TAB


The Killers - Mr. Brightside guitar lesson by ThEnExTsYn's YouTube channel
It shows the intro part (main riff) in half-step down tuning
Download the TAB under the video



THE KILLERS MR BRIGHTSIDE TAB                                            

PDF >>

eb-----------------0------------------------------0---------------------
Bb--------------------17-----------------------------17-----------------
Gb---------19-------------19--------------19-------------19-------------
Db-----16------16-------------0-------16------16-------------0----------
Ab-17-----------------------------16------------------------------------
Eb----------------------------------------------------------------------


eb-----------------0------------------------------0---------------------
Bb--------------------17-----------------------------17-----------------
Gb---------19-------------19--------------19-------------19-------------
Db-----16------16-------------16------16------16-------------0----------
Ab----------------------------------------------------------------------
Eb-15-----------------------------15------------------------------------


eb-----------------0------------------------------0---------------------
Bb--------------------17-----------------------------17-----------------
Gb---------19-------------19--------------19-------------19-------------
Db-----16------16-------------0-------16------16-------------0----------
Ab-17-----------------------------16------------------------------------
Eb----------------------------------------------------------------------



eb-----------------0------------------------------0---------------------
Bb--------------------17-----------------------------17-----------------
Gb---------19-------------19--------------19-------------19-------------
Db-----16------16-------------16------16------16-------------0----------
Ab----------------------------------------------------------------------
Eb-15-----------------------------15------------------------------------