20130315

TRACY CHAPMAN GIVE ME ONE REASON TAB


Tracy Chapman - Give Me One Reason acoustic guitar lesson played by Deaktee
This is the main riff that repeats over and over ...
See the TAB under the video



GIVE ME ONE REASON TAB


e-----------------------------------------------------------------------B-------2.-------2-2.---------4.-------6-6.-----------------------------
G-------3.-------3-3.---------4.-------6-6.-----------------------------
D-------4.-------4-4.---------4.-------6-6.-----------------------------
A---------------------0-2--------4--------------------------------------
E-2--------2--------------------------------0---------------------------


e-----------------------------------------------------------------------
B-------2.-------2-2.---------2.-------2-2.-----------------------------
G-------3.-------3-3.---------3.-------3-3.-----------------------------
D-------4.-------4-4.---------4.-------4-4.-----------------------------
A-------------------------------------------0---------------------------
E-2--------2----------0-2--------2--------------------------------------


e-----------------------------------------------------------------------
B-------4.-------4-4.---------4.-------6-6.-----------------------------
G-------4.-------4-4.---------4.-------6-6.-----------------------------
D-------4.-------4-4.---------4.-------6-6.-----------------------------
A-2--------2----------0-2--------4--------------------------------------
E-------------------------------------------0---------------------------



e-----------------------------------------------------------------------B-------2.-------2-2.---------2.-------2-2.-----------------------------
G-------3.-------3-3.---------3.-------3-3.-----------------------------
D-------4.-------4-4.---------4.-------4-4.-----------------------------
A-------------------------------------------0---------------------------
E-2--------2----------0-2--------2--------------------------------------


e-----------------------------------------------------------------------
B-------6.-------6-6.---------4.-------4-4.-----------------------------
G-------6.-------6-6.---------4.-------4-4.-----------------------------
D-------6.-------6-6.---------4.-------4-4.-----------------------------
A-4--------4----------0-2--------2--------------------------------------
E-------------------------------------------0---------------------------


e-----------------------------------------------------------------------
B-------2.-------2-2.---------2.-------2-2.-----------------------------
G-------3.-------3-3.---------3.-------3-3.-----------------------------
D-------4.-------4-4.---------4.-------4-4.-----------------------------
A-----------------------------------------------------------------------
E-2--------2----------0-2--------2--------------------------------------