20130419

ENNIO MORRICONE THE PROFESSIONAL TAB (CLASSICAL GUITAR TAB)


Ennio Morricone - The Professional (Chi Mai) classical guitar cover by Marco Savelli
It's arranged for two guitars and is played in standard tuning
Download the TAB under the video



ENNIO MORRICONE THE PROFESSIONAL TAB

GP5 + GP6 + PDF >> 
 
Part 1

G1
e---9-----------9-----9--------------7-5-7------------------------------
B-----------------------------------------------------------------------
G-----------------------------------------------------------------------
D-----------------------------------------------------------------------
A-----------------------------------------------------------------------
E-----------------------------------------------------------------------

G2
e-----------------------------------------------------------------------
B-----------------------------------------------------------------------
G---------2-----------2-----------1-----------1-------------------------
D-------4---4-------4---4-------2---2-------2---2-----------------------
A-----4-------4---4-------4---2-------2---2-------2---------------------
E---2-----------2-----------0-----------0-------------------------------



G1
e---5---------------------5-5-------------------------------------------
B---------7-----------9-----------------------9---7---------------------
G---------------------------------7-------------------------------------
D-----------------------------------------------------------------------
A-----------------------------------------------------------------------
E-----------------------------------------------------------------------

G2
e-----------------------------------------------------------------------
B-----------------------------------------------------------------------
G---------2-----------2---------2-4-2-----------------------------------
D-------4---4-------4---4-----4-------4-----0-2-0-----------------------
A-----4-------4---4-------4-2-------------2-------2---------------------
E---2-----------2-----------------------0-------------------------------




G1
e-----------------------------------------------------------------------
B---9-----------------------------7---5-7-------------------------------
G---------6-----------------------------------4-------------------------
D-----------------------------------------------------------------------
A-----------------------------------------------------------------------
E-----------------------------------------------------------------------

G2
e-----------------------------------------------------------------------
B---------------------------------2-------------------------------------
G-------------------------------2---2---------4-------------------------
D---------6-----4-----6-------4-------4-----4---4-----------------------
A-----4-7---7-4---7-4---7-4-5-------------5-------5---------------------
E---5-----------------------------------4-------------------------------



G1
e---------9-----7-----------9-------------------------------------------
B-----------------------------------------------------------------------
G-----------------------------------------------------------------------
D-----------------------------------------------------------------------
A-----------------------------------------------------------------------
E-----------------------------------------------------------------------

G2
e----------------------------------------9-13p9-------------------------
B--------------------------------------9--------9-12--------------------
G---------6-----------6-------------10---------------10-----------------
D-----4-6---6-4---4-6---6-4------11---------------------11--------------
A---4-----------4-------------11----------------------------------------
E---------------------------9-------------------------------------------





DOWNLOAD THIS TAB IN GUITAR PRO



  • click 'Free Download'
  • add your e-mail address
  • you will get an e-mail with your download links (in a few seconds)
  • download the Guitar Pro 6 tab + GP5 + PDF for free
  • and that's all ...


Guitar Pro: a complete workshop for guitarists at an affordable price