20130412

DENIS SALGADO HUNTING HIGH AND LOW TAB (ELECTRIC GUITAR TABS)


A-ha - Hunting High And Low instrumental guitar cover played by Denis Salgado
Amazing electric guitar cover with backing track
Download the TAB under the video



DENIS SALGADO HUNTING HIGH AND LOW TAB


Verse

e-----------------------------------------------------------------------
B-----------------------------------------------------------------------
G-------------4p2/4~---------2h4-/5---7p5.---4--------------------------
D-0h2--------------------------------------------7-6---\--3-------------
A-----------------------------------------------------------------------
E-----------------------------------------------------------------------


e-----------------------------------------------------------------------
B--------------------------------------3-5.-----------------------------
G-------------4p2/4~---------2---4-5-----5.---(4)---(2)-1~--------------
D-2---------------------------------------------------------------------
A-----------------------------------------------------------------------
E-----------------------------------------------------------------------


e-----------------------------------------------------------------------
B---------------------------------------------6-------------------------
G------------------7p5---7-5/7~------5h7-8.-----8.---7-5h7~-------------
D-3---3/5~--------------------------------------------------------------
A-----------------------------------------------------------------------
E-----------------------------------------------------------------------



e-----------------------------------------------------------------------
B-----------------------------------------------------------------------
G---------5---------4---2/4~------5---\---2~----------------------------
D-5---7-------7-7-------------------------------------------------------
A-----------------------------------------------------------------------
E-----------------------------------------------------------------------



Chorus

e-----------------------------------------------------------------------
B--------------------------/5---h6-6(8)------(8)(6)--p5-----------------
G-7(9)------5h7-----------------------------------------7~-----7/9------
D---------------7~---------------------------------------------------7~-
A-----------------------------------------------------------------------
E-----------------------------------------------------------------------


e-----------------------------------------------------------------------
B-----------------------------------------------------------------------
G--------------4---2/4~------5---\---2~---------------------------------
D-5------5h7------------------------------------------------------------
A-----------------------------------------------------------------------
E-----------------------------------------------------------------------


e-----------------------------------------------------------------------
B--------------------------/5---h6-6(8)------(8)(6)--p5-----------------
G-7(9)------5h7-----------------------------------------7~-----7/9------
D---------------7~---------------------------------------------------7~-
A-----------------------------------------------------------------------
E-----------------------------------------------------------------------


e-----------------------------------------------------------------------
B-----------------------------------------------------------------------
G-10------9~------------------------------------------------------------
D-----------------------------------------------------------------------
A-----------------------------------------------------------------------
E-----------------------------------------------------------------------



Verse 2

e------------------------------------10---------------------------------
B-10/12p10-12~---------10h12-12h13------13.---(12)---(10)p9~------------
G-------------------------------------------------------------10~-------
D-----------------------------------------------------------------------
A-----------------------------------------------------------------------
E-----------------------------------------------------------------------


e-------------------------------------10--------------------------------
B------------/12.---/12~------12-13------13.---(12)---(10)-9~-----------
G-9~------------------------------------------------------------/10~----
D-----------------------------------------------------------------------
A-----------------------------------------------------------------------
E-----------------------------------------------------------------------