20130415

SWEET HOME ALABAMA SOLO TAB (GUITAR SOLO TAB)


Lynyrd Skynyrd - Sweet Home Alabama guitar solo cover played by Sean Boothe
Clean tone with the legendary bridge-middle pickup mix
Download the TAB under the video



LYNYRD SKYNYRD SWEET HOME ALABAMA SOLO TAB

GP5 + GP6 + PDF >>

Main Solo

e-----------------------------------------------------------------------
B-----------------------------------------------------------------------
G-------0---0-0-2-2(4).--2(4).--2(4).--2-(4)(2)(4)(2)p0---0-0--\\\--///-
D-0h1h2---2---------------------------------------------2---------------
A------------------------------------------------------------  tremolo
E-----------------------------------------------------------------------


e-----------------------------------------------------------------------
B-----8---8-10(13)---10'--8---8-----------------------------------------
G-7/9---9-------------------9---9p7-7~-----7-7.---7~---------9-7~-------
D--------------------------------------------------------0-9------------
A-----------------------------------------------------------------------
E-----------------------------------------------------------------------


e-----------------------------------------------------------------------
B-----------------------------------------------------------------------
G-7------12----12--14p12-----12--17p12-----12--17p12-----12--16p12------
D---9/14----14-----------14------------14------------14------------14---
A-----------------------------------------------------------------------
E-----------------------------------------------------------------------



e-----------------------------------------------------------------------
B-----------------------------------------------------------------------
G-12--16p12-----12--16p12-----12--16p12-----12--17p12-----12--17p12-----
D-----------14------------14------------14------------14------------14--
A-----------------------------------------------------------------------
E-----------------------------------------------------------------------


e-----------------------------------------------------------------------
B-----------------------------------------------------------------------
G-12--14p12------12---14p12------12---17p12------12---17p12------12-----
D-----------14--------------14--------------14--------------14----------
A-----------------------------------------------------------------------
E-----------------------------------------------------------------------


e---------------------------------------------------------------12------
B---------------------------------------------------12----12h15----15---
G-17p12------12-------------12----------12----12h14----14---------------
D-------14--------14-----------14-12/14----14---------------------------
A---------------------13/14---------------------------------------------
E-----------------------------------------------------------------------






DOWNLOAD THE COMPLETE SOLO TAB HERE



  • click 'Free Download'
  • add your e-mail address
  • you will get an e-mail with your download links (in a few seconds)
  • download the Guitar Pro 6 tab + GP5 + PDF for free
  • and that's all ...


Guitar Pro: a complete workshop for guitarists at an affordable price