20130521

ADELE SKYFALL TAB (FINGERSTYLE GUITAR TAB)


Adele - Skyfall acoustic fingerstyle guitar cover played by Maxl Walmsley Pledl
It's arranged in Dropped D tuning with Capo on the 3rd fret
Download the TAB under the video



ADELE SKYFALL FINGERSTYLE TAB

GP5 + GP6 + PDF >>

 - CAPO on the 3rd -
Intro

e-----------------------------------------------------------------------
B---0-------------------------------------------------------------------
G---2-------------------------------------------------------------------
D---2-------------------------------------------------------------------
A---0-------------------------------------------------------------------
D-----------------------------------------------------------------------


e-----------------------------------------------------------------------
B---1-------1-------1-------1-------1-------1-------1-------1-0---------
G---2-------2-------2-------2-------2-------2-------2-------2-2---------
D---2-------2-----0-3-------3-----3-0-------0-------0-------0-0---------
A-------0-------0-------------------------------------------------------
D-------------------3---3---3---3---0---0---0---0---0---0---0-----------


e-----------------------------------------------------------------------
B---1-------1-------1-------1-------1-------1-------1-------1-0---------
G---2-------2-------2-------2-------2-------2-------2-------2-2---------
D---2-------2-----0-3-------3-----3-0-------0-------0-------0-0---------
A-------0-------0-------------------------------------------------------
D-------------------3---3---3---3---0---0---0---0---0---0---0-----------



e-----------------------------------------------------------------------
B---1-------1-------1-------1-------1-------1-------1-------1-0---------
G---2-------2-------2-------2-------2-------2-------2-------2-2---------
D---2-------2-----0-3-------3-----3-0-------0-------0-------0-0---------
A-------0-------0-------------------------------------------------------
D-------------------3---3---3---3---0---0---0---0---0---0---0-----------


e-----------------------------------------0---------------0-------------
B---1-------1-------1-------1-0-----0-------0-----0-0-------0-----0-----
G---2-------2-------2-------2-2-----2-------2-----2-1-------1-----------
D-----------------------------------2-------2-----2-2-------2-----------
A---2---2---2---2---2---2---2-------------------------------------------
D-----------------------------------2---2-------2---2---2---------------


Verse

e-----------------------------------------------------------------------
B---0--h1---1-------1-------1-------1-------1-----------0---0h1---------
G---------2-2-------2-------2-------2-------2-------2-----------2-------
D---------2-2-----0-3-------3-----3-0-------0---------------------------
A---0---0-------0-------------------------------------------------------
D-------------------3---3-------3---0---0-------0---0---0---0-----------


e-----------------------------------------------------------------------
B---0-------0-------1-------1-------1-------1-------0-----0-------------
G---2-------2---2.--2-------2-------2-------2-----2-----2-------2-------
D-----------2---2.--3-------3-----3-0-------0---------------------------
A---0---0---------------------------------------------------------------
D-------------------3---3-------3---0---0-------0---0-----0-0-----------


e-----------------------------------------------------------------------
B---0-------0-------1-------1-------1-------1-------0-----0-------------
G---2-------2---2.--2-------2-------2-------2-----2-----2-------2.------
D-----------2---2.--3-------3-----3-0-------0---------------------------
A---0---0---------------------------------------------------------------
D-------------------3---3-------3---0---0-------0---0-----0-0-----------


e-----------------------------------0-------0---1p0--0-----0-0----------
B---0-------0-------0-------0-------0-------0------3-0-----0-0-----0----
G---2-------2-------2-------2---2.--2-------2--------1-----1-1---2------
D-----------------------------------2-------2--------2-----2-2----------
A---2---2---2---2---2---2---2-------------------------------------------
D-----------------------------------2---2-------------------------------






DOWNLOAD THE COMPLETE TAB HERE



  • click 'Free Download'
  • add your e-mail address
  • you will get an e-mail with your download links (in a few seconds)
  • download the Guitar Pro 6 tab + GP5 + PDF for free
  • and that's all ...


Guitar Pro: a complete workshop for guitarists at an affordable price