20130503

DENIS SALGADO SUMMER MOVED ON TAB (ELECTRIC GUITAR TABS)


A-ha - Summer Moved On instrumental guitar cover played by Denis Salgado
Amazing electric guitar cover with backing track
Download the TAB under the video



DENIS SALGADO SUMMER MOVED ON TAB


Verse 1

e-----------------------------------------------------------------------
B-----------------------------------------------------------------------
G-2/4--\2~--------0h2-2~------------0---0h2----------2/4---2h4p2p0---2--
D-------------------------------2-------------2-------------------------
A-----------------------------------------------------------------------
E-----------------------------------------------------------------------


e-----------------------------------------------------------------------
B-----------------------------------0---0h2-----------------------------
G-2/4---2~--------0h2.--2~------2-------------2------2/4---2h4p2p0---0h2
D-----------------------------------------------------------------------
A-----------------------------------------------------------------------
E-----------------------------------------------------------------------



e-----------------------------------------------------------------------
B-----------------------------------------------------------------------
G-/7-7~---------7-9(11)-------------------------6---4/6~----------------
D---------------------------------------9---9---------------------------
A-----------------------------------------------------------------------
E-----------------------------------------------------------------------


e-----------------------------------------------------------------------
B-----------------------------------------------------------------------
G-/6--h7---7---9~-----------7-7~------7-7/9(11)~---------------6---4/6~-
D------------------------------------------------------9---9------------
A-----------------------------------------------------------------------
E-----------------------------------------------------------------------


e-------------------------------/17(19)---------------------------------
B-----------------------------------------------------------------------
G-/6.---6h7~---9~-------------------------------------------------------
D-----------------------------------------------------------------------
A-----------------------------------------------------------------------
E-----------------------------------------------------------------------



Chorus 1

e-(19)(17)---15---14~---------------------------------------------------
B-------------------------------17(19)------(19)------------------------
G--------------------------16.------------------------------------------
D-----------------------------------------------------------------------
A-----------------------------------------------------------------------
E-----------------------------------------------------------------------


e----------------------------------17(19)-------------------------------
B-15---17---17(19)---(19)(17)--p15--------------------------------------
G-----------------------------------------------------------------------
D-----------------------------------------------------------------------
A-----------------------------------------------------------------------
E-----------------------------------------------------------------------


e-(19)(17)--p15---14~---------------------------------------------------
B-------------------------------17(19)(17)(19)~-------------------------
G--------------------------16.------------------------------------------
D-----------------------------------------------------------------------
A-----------------------------------------------------------------------
E-----------------------------------------------------------------------


e-----------------------------------------------------------------------
B-15---17---17/19---17---15---------15~---------------------------------
G---------------------------14h16---------------------------------------
D-----------------------------------------------------------------------
A-----------------------------------------------------------------------
E-----------------------------------------------------------------------



Verse 2

e-----------------------------------------------------------------------
B-------10~---------8h10-10~------------8---8h10------------------------
G-14/16---------------------------7h9--------------9~-------------------
D-----------------------------------------------------------------------
A-----------------------------------------------------------------------
E-----------------------------------------------------------------------


e-----------------------------------------------------------------------
B---10/12---10h12p10\8---8h10~----------10/12\10-10~------8h10-10~------
G-9---------------------------------------------------------------------
D-----------------------------------------------------------------------
A-----------------------------------------------------------------------
E-----------------------------------------------------------------------


e-----------------------------------------------------------------------
B------8---8h10--------------10/12---.---10\8.---8h10~------------------
G-/9--------------9~----------------------------------------------------
D-----------------------------------------------------------------------
A-----------------------------------------------------------------------
E-----------------------------------------------------------------------


e-----------------------------------------------------------------------
B-/15-15~---------15---/17(19)-----------------(19)(17)---12---14-12/14~
G-----------------------------------------------------------------------
D-----------------------------------------------------------------------
A-----------------------------------------------------------------------
E-----------------------------------------------------------------------