20130522

OASIS DON'T LOOK BACK IN ANGER SOLO TAB


Oasis - Don't Look Back In Anger solo starts at 3:21 in this acoustic version
It's not in the original key, the solo is in standard tuning
Download the TAB under the video



DON'T LOOK BACK IN ANGER SOLO TAB               

PDF >>


e-----------------------------------------------------------------------
B-(16)---(14)(16)------(16)(14)-12--------------------------------------
G----------------------------------11------11(13)-----------------------
D-----------------------------------------------------------------------
A-----------------------------------------------------------------------
E-----------------------------------------------------------------------


e-----------------------------------------------------------------------
B-(16)---(14)---(16)---(14)---(16)---(14)-12----------------------------
G--------------------------------------------11~---11(13)---(11)~-------
D-----------------------------------------------------------------------
A-----------------------------------------------------------------------
E-----------------------------------------------------------------------



e-----------------------------------------------------------------------
B-----------------------------------------------------------------------
G-------11-11-----------------------------------------------------------
D-11/13---------13-\-11-9-----------------------------------------------
A-----------------------------------------------------------------------
E-----------------------------------------------------------------------


e-----------------------------------------------------------------------
B-(16)---(14)---(16)---(14)---(16)---(14)-12----------------------------
G--------------------------------------------11~---11/13---\\\----------
D-----------------------------------------------------------------------
A-----------------------------------------------------------------------
E-----------------------------------------------------------------------


e-----------------------------------------------------------------------
B-------------------------------7(9).---7.------------------------------
G-6~---------4.--6--(8)----------------------6(8)(6)-4h6----------------
D--------------------------------------------------------6~-------------
A-----------------------------------------------------------------------
E-----------------------------------------------------------------------


e-------------------------------------------------------7---------------
B----------------------------------------------7.---7h9-----------------
G-(8)(6)-4---4~------6(8)(6)-4---4~------6/8----------------------------
D----------6-------------------6----------------------------------------
A-----------------------------------------------------------------------
E-----------------------------------------------------------------------


e-------------7---------------7\----------------4-----------------------
B-----7---7h9---------7---7h9-----7-------------------------------------
G-6h8-------------6h8-------------6-------------------------------------
D---------------------------------4-------------------------------------
A-----------------------------------------------------------------------
E-----------------------------------------------------------------------