20130527

RICKY NELSON HELLO MARY LOU TAB


Ricky Nelson - Hello Mary Lou country solo starts around 1:05 in the original song
The guitar lesson shows the solo part and the chords are added too
Download the TAB under the video



HELLO MARY LOU TAB

 PDF >>

e-----------5-----5-----3p2-------------------2p0---------2p0-----------
B-------------2---------------5.---2----------------1p0---------1p0-----
G-------------------------------------------------------2-----------2---
D-----------------------------------------0-----------------------------
A-------0.------------0-------------------------------------------------
E-0-2-4-----------------------------------------------------------------


e-----5-----5-----5.-----3p2---------0-----0.-----0-----0---------------
B-------2--------------------5---------3------------3-------3-----------
G-----------------------------------------------------------------------
D-----------------------------------------------------------------------
A-0.------------0-------------------------------------------------------
E--------------------------------0--------------0-----------------------



e-----0-----------------------------------------------------------------
B-----5---7(8)(7)---5---7(8)(7)-----7---------2-------------------------
G-------------------------------6-------4(6)------(6)(4)-2.-----------2-
D------------------------------------------------------------4---4-4----
A-0---------------------------------------------------------------------
E-----------------------------------------------------------------------


e--------5--------------------------------------------------------------
B------------------------------2---------------------------5------------
G-7(9)-------8p7p5------4(6)-------4(6)(4)-2-----------7-----5'---------
D------------------5.------------------------4---/7---------------7~----
A-----------------------------------------------------------------------
E-----------------------------------------------------------------------


Chords

Verse

e---------2---------------0---------------------------------------------
B-2-------3-------2-------0---------------------------------------------
G-2-------2-------2-------1---------------------------------------------
D-2-------0-------2-------2---------------------------------------------
A-0---------------0-------2---------------------------------------------
E-------------------------0---------------------------------------------


Chorus

e---------2---------------0-------------------2---2---0-----------------
B-2-------3-------2-------0-------2-------2---2---2---0---2-------------
G-2-------2-------2-------1-------2-------4---2---2---1---2-------------
D-2-------0-------2-------2-------2-------3---4---1---2---2-------------
A-0---------------0-------2-------0-------4---4---2---2---0-------------
E-------------------------0-------------------2-------0-----------------

 


Recommended strumming pattern:

down    down-up-down-up-down-up

down    down-up-down-up-down-up