20130510

TICO TICO GUITAR TAB (LUIS MORENO)


Tico Tico melody on guitar played by Luis Moreno
Download the TAB under the video



TICO TICO TAB


Part 1

e---------------------------------------------------10-7----------------
B---------------10.-----------------9.-------------------9--------------
G-9-8-9-10-9.---------9-8-9-10-9.--------9-8-9-10-9--------9-7----------
D--------------------------------------------------------------11-10.---
A-----------------------------------------------------------------------
E-----------------------------------------------------------------------


e-----------------10.---8---------------8.---8----------------10-8-7----
B-10-9-8----10.-----------10------10.----------12-10-12-----7--------10-
G--------10------------------10-9-------------------------8-------------
D-------------------------------------------------------9---------------
A-----------------------------------------------------------------------
E-----------------------------------------------------------------------



e---------7.------------------------------------------------------------
B-9-10.-----------------------------------------------------------------
G-----------------------------------------------------------------------
D-----------------------------------------------------------------------
A-----------------------------------------------------------------------
E-----------------------------------------------------------------------


e---------------------------------------------------10-7----------------
B---------------10.-----------------9.-------------------9--------------
G-9-8-9-10-9.---------9-8-9-10-9.--------9-8-9-10-9--------9-7----------
D--------------------------------------------------------------11-10.---
A-----------------------------------------------------------------------
E-----------------------------------------------------------------------


e-----------------10.---8---------------8.---8-------7-----7------------
B-10-9-8----10.-----------10------10.----------12-10-----9--------------
G--------10------------------10-9----------------------9----------------
D-----------------------------------------------------------------------
A-----------------------------------------------------------------------
E-----------------------------------------------------------------------


e-12-10-8---------------------------------------------------------------
B---------12-10.--------------------------------------------------------
G-----------------------------------------------------------------------
D-----------------------------------------------------------------------
A-----------------------------------------------------------------------
E-----------------------------------------------------------------------


Part 2

e-7---------------------------------------------------------------------
B---10-9-8------8------8-9-10.------------------------------------------
G-------------9------9-----------10-------------------------------------
D----------10-----10----------------------------------------------------
A-----------------------------------------------------------------------
E-----------------------------------------------------------------------


e-7---------------------------------------------------------------------
B---10-9-8--------------------------------------------------------------
G---------------12------10-12-14.---9-----------------------------------
D----------9-12----9-12-------------------------------------------------
A-----------------------------------------------------------------------
E-----------------------------------------------------------------------


e-----------------------------------------------------------------------
B-13-13-13-13p12-12-12--12-10-10-10-10.---------------------------------
G----------------------------------------10-10.-------------------------
D-----------------------------------------------------------------------
A-----------------------------------------------------------------------
E-----------------------------------------------------------------------


e-----------------------------------------------------------------------
B-12-12-12-12p8-8-12-10p8----10-8---------------------------------------
G-------------------------10--------------------------------------------
D-----------------------------------------------------------------------
A-----------------------------------------------------------------------
E-----------------------------------------------------------------------


e-7---------------------------------------------------------------------
B---10-9-8------8------8-9-10.------------------------------------------
G-------------9------9-----------10-------------------------------------
D----------10-----10----------------------------------------------------
A-----------------------------------------------------------------------
E-----------------------------------------------------------------------


e-7---------------------------------------------------------------------
B---10-9-8--------------------------------------------------------------
G---------------12------10-12-14.---9-----------------------------------
D----------9-12----9-12-------------------------------------------------
A-----------------------------------------------------------------------
E-----------------------------------------------------------------------


e----------------------10-----------12-------12-15-14-13-12-------------
B-13-12-11-10----10-12----13-12-13--------13----------------------------
G-------------13-----------------------12-------------------------------
D-----------------------------------------------------------------------
A-----------------------------------------------------------------------
E-----------------------------------------------------------------------


e-10--------------------------------------------------------------------
B----13-12--------------------------------------------------------------
G----------14-12-10-----------------------------------------------------
D-------------------14-12-10.-------------------------------------------
A-----------------------------------------------------------------------
E-----------------------------------------------------------------------


Part 3

e-----------------------------------------------------------------------
B-------10-----9.-------------------------------------------------------
G---6-9------6--------6-11-11---6-9.-----6-11-11---6-9.-----------------
D-7--------7--------7---------7--------7---------7----------------------
A-----------------------------------------------------------------------
E-----------------------------------------------------------------------