20130510

TICO TICO GUITAR TAB (LUIS MORENO)


Zequinha de Abreu - Tico Tico melody on electric guitar played by Luis Moreno
Extreme fast arrangement in standard tuning with backing track
Download the TAB under the video



TICO TICO TAB

GP5 + GP6 + PDF >>

Part 1

e-----------------------------------------------------------------------
B-------------------10.-----------------9.------------------------------
G-----9-8-9-10-9.---------9-8-9-10-9.-----------------------------------
D-----------------------------------------------------------------------
A-----------------------------------------------------------------------
E-----------------------------------------------------------------------


e---------------10-7----------------------------------------------------
B--------------------9--------------------------------------------------
G----9-8-9-10-9--------9-7----------------------------------------------
D--------------------------11-10.---------------------------------------
A-----------------------------------------------------------------------
E-----------------------------------------------------------------------


e--------------------10.---8---------------8.---------------------------
B----10-9-8----10.-----------10------10.--------------------------------
G-----------10------------------10-9------------------------------------
D-----------------------------------------------------------------------
A-----------------------------------------------------------------------
E-----------------------------------------------------------------------



e----8----------------10-8-7------------7.------------------------------
B------12-11-12-----7--------10-9-10.-----------------------------------
G-----------------8-----------------------------------------------------
D---------------9-------------------------------------------------------
A-----------------------------------------------------------------------
E-----------------------------------------------------------------------


e-----------------------------------------------------------------------
B-------------------10.-----------------9.------------------------------
G-----9-8-9-10-9.---------9-8-9-10-9.-----------------------------------
D-----------------------------------------------------------------------
A-----------------------------------------------------------------------
E-----------------------------------------------------------------------


e---------------10-7----------------------------------------------------
B--------------------9--------------------------------------------------
G----9-8-9-10-9--------9-7----------------------------------------------
D--------------------------11-10.---------------------------------------
A-----------------------------------------------------------------------
E-----------------------------------------------------------------------


e--------------------10.---8---------------8.---------------------------
B----10-9-8----10.-----------10------10.--------------------------------
G-----------10------------------10-9------------------------------------
D-----------------------------------------------------------------------
A-----------------------------------------------------------------------
E-----------------------------------------------------------------------


e----8--------------7-12-10-8-------------------------------------------
B------12-11-12---9-----------12-10.------------------------------------
G---------------9-------------------------------------------------------
D-----------------------------------------------------------------------
A-----------------------------------------------------------------------
E-----------------------------------------------------------------------


Part 2

e---7-------------------------------------------------------------------
B-----10-9-8------8------8-9-10.----------------------------------------
G---------------9------9-----------10-----------------------------------
D------------10-----10--------------------------------------------------
A-----------------------------------------------------------------------
E-----------------------------------------------------------------------


e---7-------------------------------------------------------------------
B-----10-9-8------------------------------------------------------------
G-----------------12------10-12-14.---9---------------------------------
D------------9-12----9-12-----------------------------------------------
A-----------------------------------------------------------------------
E-----------------------------------------------------------------------


e-----------------------------------------------------------------------
B---13-13-13-13p12-12-12.--10-10-10-10.---------------------------------
G----------------------------------------10-10.-------------------------
D-----------------------------------------------------------------------
A-----------------------------------------------------------------------
E-----------------------------------------------------------------------


e-----------------------------------------------------------------------
B---12-12-12-12p8-8-12-10p8----10-8~------------------------------------
G---------------------------10------------------------------------------
D-----------------------------------------------------------------------
A-----------------------------------------------------------------------
E-----------------------------------------------------------------------


e---7-------------------------------------------------------------------
B-----10-9-8------8------8-9-10.----------------------------------------
G---------------9------9-----------10-----------------------------------
D------------10-----10--------------------------------------------------
A-----------------------------------------------------------------------
E-----------------------------------------------------------------------


e---7-------------------------------------------------------------------
B-----10-9-8------------------------------------------------------------
G-----------------12------10-12-14.---9---------------------------------
D------------9-12----9-12-----------------------------------------------
A-----------------------------------------------------------------------
E-----------------------------------------------------------------------


e------------------------10-----------12-------12-15-14-13-12-----------
B---13-12-11-10----10-12----13-12-13--------13--------------------------
G---------------13-----------------------12-----------------------------
D-----------------------------------------------------------------------
A-----------------------------------------------------------------------
E-----------------------------------------------------------------------


e-----------------------------------------------------------------------
B---15-13-12------------------------------------------------------------
G------------14-12-10---------------------------------------------------
D---------------------14-12-10.-----------------------------------------
A-----------------------------------------------------------------------
E-----------------------------------------------------------------------






DOWNLOAD THE COMPLETE TAB HERE



  • click 'Free Download'
  • add your e-mail address
  • you will get an e-mail with your download links (in a few seconds)
  • download the Guitar Pro 6 tab + GP5 + PDF for free
  • and that's all ...


Guitar Pro: a complete workshop for guitarists at an affordable price