20130610

BIG TOM AND THE MIGHTY MAINLINERS HORNPIPES TAB


Big Tom and the Mighty Mainliners play Hornpipes in a bar
There is a guitar solo at the beginning and in the second half of the song
Download the TAB under the video



HORNPIPES GUITAR SOLO TAB


Part 1

e---------------------------------0h3p0---0-----------------------------
B-3---0-0---------------0---0h3---------3-------------------------------
G---------2---2-------2---2---------------------------------------------
D-----------4---0---4---------------------------------------------------
A-----------------------------------------------------------------------
E-----------------------------------------------------------------------


e-2---5-5---2-0---3-2h3p2-0-----2-0-------------------------------------
B---------------------------3---------3-0-------------------------------
G-----------------------------------------------------------------------
D-----------------------------------------------------------------------
A-----------------------------------------------------------------------
E-----------------------------------------------------------------------


e---------------------------------0h3p0---0-----------------------------
B-3---0-0---------------0---0h3---------3-------------------------------
G---------2---2-------2---2---------------------------------------------
D-----------4---0---4---------------------------------------------------
A-----------------------------------------------------------------------
E-----------------------------------------------------------------------




e-2---5-5---2-0---3-2h3p2-0---------------------------------------------
B---------------------------3.---3---3.---------------------------------
G-----------------------------------------------------------------------
D-----------------------------------------------------------------------
A-----------------------------------------------------------------------
E-----------------------------------------------------------------------


e---------------------------------0h3p0---0-----------------------------
B-3---0-0---------------0---0h3---------3-------------------------------
G---------2---2-------2---2---------------------------------------------
D-----------4---0---4---------------------------------------------------
A-----------------------------------------------------------------------
E-----------------------------------------------------------------------


e-2---5-5---2-0---3-2h3p2-0-----2-0-------------------------------------
B---------------------------3---------3-0---2---------------------------
G-----------------------------------------------------------------------
D-----------------------------------------------------------------------
A-----------------------------------------------------------------------
E-----------------------------------------------------------------------


e---------------------------------0h3p0---0-----------------------------
B-3---0-0---------------0---0h3---------3-------------------------------
G---------2---2-------2---2---------------------------------------------
D-----------4---0---4---------------------------------------------------
A-----------------------------------------------------------------------
E-----------------------------------------------------------------------


e-2---5-5---2-0---3-2h3p2-0----------2----------------------------------
B---------------------------3.---3---3----------------------------------
G--------------------------------2--------------------------------------
D-----------------------------------------------------------------------
A-----------------------------------------------------------------------
E-----------------------------------------------------------------------