20130611

CARLOS SANTANA EUROPA TAB AND GUITAR LESSON


Short guitar lesson how to play Europa by Carlos Santana (Moonflower album)
The main parts of the song are shown in the video
Download the TAB below



SANTANA EUROPA TAB


Part 1

e------8---10.---10/11---10.-----8--------------------------------------
B-8.-------------------------------11.---8h9~---------------------------
G-----------------------------------------------------------------------
D-----------------------------------------------------------------------
A-----------------------------------------------------------------------
E-----------------------------------------------------------------------


e------8-8h10-8~--------------------------------------------------------
B-9-11-----------------11.----------------------------------------------
G------------------------------10---/12~--------------------------------
D-----------------------------------------------------------------------
A-----------------------------------------------------------------------
E-----------------------------------------------------------------------



e-----------------------------------------------------------------------
B-8---9---11---11/13---11.-----9-8---------------8.---------------------
G----------------------------------8h10~-----------8h10~----------------
D-----------------------------------------------------------------------
A-----------------------------------------------------------------------
E-----------------------------------------------------------------------


e-----------------------------------------------------------------------
B-------8---9.---9/11---9.---8------------------------------------------
G-10.--------------------------10-8~------------------------------------
D-----------------------------------------------------------------------
A-----------------------------------------------------------------------
E-----------------------------------------------------------------------


e-----------------------------------------------------------------------
B--------------------------------8.-------------------------------------
G-10p8---------------------------8.-------------------------------------
D------10p8----------------------10.------------------------------------
A-----------10\8-6-8/10-------------------------------------------------
E-----------------------11-----8----------------------------------------


Part 2

e------8---10.---10/11---10.--------8-----------------------------------
B-8.----------------------------------11-8h9~---------------------------
G-----------------------------------------------------------------------
D-----------------------------------------------------------------------
A-----------------------------------------------------------------------
E-----------------------------------------------------------------------


e------8-8h10-8~--------------------------------------------------------
B-9-11-------------------11.--------------------------------------------
G------------------------------10---/12~--------------------------------
D-----------------------------------------------------------------------
A-----------------------------------------------------------------------
E-----------------------------------------------------------------------


e-----------------------------------------------------------------------
B-8---9---11---11/13---11.-----9-8--------------------------------------
G----------------------------------8h10~---------8h10~------------------
D-----------------------------------------------------------------------
A-----------------------------------------------------------------------
E-----------------------------------------------------------------------


e-----------------------------------------------------------------------
B-------8---9---9h11-----9-8h9p8----------------------------------------
G-10.----------------------------10---/12~------------------------------
D-----------------------------------------------------------------------
A-----------------------------------------------------------------------
E-----------------------------------------------------------------------


Part 3

e-----------------13(15)------13(15)----------------13-11-13---13---/16.
B---------13.-----------------------------------------------------------
G-12.-------------------------------------------------------------------
D-----------------------------------------------------------------------
A-----------------------------------------------------------------------
E-----------------------------------------------------------------------


e-------11-13-13p11-13(15)-----------(15)(13)--11.-13-11---h13.---------
B----11-----------------------------------------------------------------
G-12--------------------------------------------------------------------
D-----------------------------------------------------------------------
A-----------------------------------------------------------------------
E-----------------------------------------------------------------------