20130610

SANTANA EUROPA FINGERSTYLE GUITAR TAB


Carlos Santana - Europa acoustic fingerstyle guitar cover played by kz kw
It's in standard tuning with Capo on the 2nd fret
Download the TAB under the video



EUROPA FINGERSTYLE TAB


Part 1

e-----4-6-6/7-6-4-2-----------------------------------------------------
B-4.--------------------------------------------------------------------
G-----------------------------------------------------------------------
D-----------------------------------------------------------------------
A-----------------------------------------------------------------------
E-----------------------------------------------------------------------


e-----------------------------------2---------2-4-4h6-4---2-------------
B-5---------------------------5.----2-----4/5---------------2-----------
G-4-----------------------4---------3-----------------------------------
D-6-------------------6-------------2-----------------------------------
A-4---------------------------------4-----------------------------------
E---------x---2---2-----------------2-----------------------------------



e------------------------------------------------4---p2-----------------
B-4-----------------------4.-------4.---5---7.--------------------------
G-3-------------------3-------------------------------------------------
D-4---------------4------------6----------------------------------------
A-2-------x---2----------------7----------------------------------------
E-----------------------------------------------------------------------


e-----------------------------------------------------------------------
B-5p4---2------------------------------------2.---4.---5-5h7---5-4p2----
G--------------------------------------------------------------------4.-
D-----6-----------------------------6.---5------------------------------
A-------6-------x---6---6-------6--------6------------------------------
E---------------------------6-------------------------------------------


e-----------------------------------------------------------------------
B-----------------------------------------------------------------------
G-4------x---6p4--------------------------------------------------------
D-6------x--------------------------------------------------------------
A-6------x-------6p4-6p4-6p2--------------------------------------------
E-4------x-------------------------4.-----------------------------------


Part 2

e-----4-6-6/7-6-4-2-----------------------------------------------------
B-4.--------------------------------------------------------------------
G-----------------------------------------------------------------------
D-----------------------------------------------------------------------
A-----------------------------------------------------------------------
E-----------------------------------------------------------------------


e---------------------------------2-----------2-4-4h6-4---2-------------
B-5-------------------------------2-------4/5---------------2-----------
G-4-------------------6/8---6\3---3-------------------------------------
D-6-------------------------------2-------------------------------------
A-4-------------------------------4-------------------------------------
E---------x---2---2---------------2-------------------------------------


e-----------------------------------------------------4---p2------------
B-4-------------------------------------4.---5---7.---------------------
G-3-------------------4/6---4---2---------------------------------------
D-4---------------------------------6-----------------------------------
A-2-------x---2---2-----------------7-----------------------------------
E-----------------------------------------------------------------------


e-----------------------------------------------------------------------
B-5p4---2-----------2---------------------2.---4.---5-5h7---5.---4p2----
G-----------------4-----4.---3------------------------------------------
D-----6--------------------------6.---5---------------------------------
A-------6-------6---------------------6---------------------------------
E-----------------------------------------------------------------------


e-----------------------------------------------------------------------
B-4-----------------------4-------x-------------------------------------
G-5---------------------------5---x-------------------------------------
D-5-------------------5-----------x-------------------------------------
A-----------------6---------------x-------------------------------------
E-4-------x---4-------------------x-------------------------------------