20130630

GUSTAVO CANABARRO NOVOS TEMPOS TAB


Gustavo Canabarro plays Novos Tempos live in a TV show
It's in Dropped D tuning, that is D A D G B E
Download the TAB under the video



GUSTAVO CANABARRO NOVOS TEMPOS TAB

GP5 + GP6 + PDF >> 

Intro

e-----------------------------------------------------------------------
B-----------------------------------------------------------------------
G-----------------------------------------------------------------------
D---------0-----------0-------0-----------0-----------0-------0---------
A-----------------------------------------------------------------------
D-0---0-------0---0-------0-------0---0-------0---0-------0-------------


e-----------------------------------------------------------------------
B-----------------------------------------------------------------------
G-----------------------------------------------------------------------
D---------3-----------3-------3-----------2-----------2-------2---------
A-----------------------------------------------------------------------
D-0---0-------0---0-------0-------0---0-------0---0-------0-------------


e-----------------------------------------------------------------------
B-----------------------------------------------------------------------
G-----------------------------------------------------------------------
D---------5-----------5-------5-----------3-----------3-------3---------
A-----------------------------------------------------------------------
D-0---0-------0---0-------0-------0---0-------0---0-------0-------------



e-----------------------------------------------------------------------
B-----------------------------------------------------------------------
G-----------------------------------------------------------------------
D---------3-----------3-------3-----------2-----------2-------2---------
A-----------------------------------------------------------------------
D-0---0-------0---0-------0-------0---0-------0---0-------0-------------


e-----------------------------------------------------------------------
B-----------------------------------------------------------------------
G-----------------------------------------------------------------------
D---------0-----------0-------0-----------<12>-----------<12>-----------
A-----------------------------------------------------------------------
D-0---0-------0---0-------0-------0---0----------0---0------------------


e-----------------------------------------------------------------------
B-----------------------------------------------------------------------
G-----------------------------------------------------------------------
D----<12>--------------<12>---------------------------------------------
A-----------------------------------------------------------------------
D-0--------<12>--<12>---------------------------------------------------


Main Part

e-----------------------------------------------------------------------
B-----------------------------------------------------------------------
G-----------------------------------------------------------------------
D-----------------------------------------------------------------------
A-------0h3-------------------------------------------------------------
D-0h3h5-----------------------------------------------------------------


e-----------------------------------------------------------------------
B-----------------------------------------------------------------------
G-----------------------------------------------------------------------
D-----3---5-----3-----3---2h3-3-3-----3---5-----3-----3---2h3-3-2-------
A-----------------------------------------------------------------------
D-0-0---0---0-0-----0---0---------0-0---0---0-0-----0---0---------------


e-----------------------------------------------------------------------
B-----------------------------------------------------------------------
G-----2-------------------------------2---------------------------------
D---------3-----5p3---3---2h3-3-3---------3-----5p3---3---2h3-3-3-------
A-----------------------------------------------------------------------
D-3-3---3---3-3-----3---3---------3-3---3---3-3-----3---3---------------


e-----------------------------------------------------------------------
B-----------------------------------------------------------------------
G-----------------------------------------------------------------------
D-----3---2-----0---------------------3---2-----0-----------------------
A---------------------5---3h5-5-5---------------------5---3h5-5-0-------
D-0-0---0---0-0-----0---0---------0-0---0---0-0-----0---0---------------




DOWNLOAD THIS TAB IN GUITAR PRO



  • click 'Free Download'
  • add your e-mail address
  • you will get an e-mail with your download links (in a few seconds)
  • download the Guitar Pro 6 tab + GP5 + PDF for free
  • and that's all ...


Guitar Pro: a complete workshop for guitarists at an affordable price