20130624

INDONESIA RAYA FINGERSTYLE GUITAR TAB


The Indonesian National Anthem acoustic fingerstyle guitar cover by Opik Bape
WR Supratman Lagu Kebangsaan Indonesia guitar solo in standard tuning
Download the TAB under the video



INDONESIA RAYA FINGERSTYLE TAB

GP5 + GP6 + PDF >>

e---------------9---------9-7---7-5-------------------------------------
B---2---3-5-----------------------------5-------------------------------
G---2---4-6-----9---------9-7---7-6-----6-------------------------------
D-----------------------------------------------------------------------
A---------0-----------0-----------0-----------0-------------------------
E-------------------0-----------------------0---------------------------


e-----------------------------------------------------------------------
B---5---5-7-----5-----3-----2-----0-------------------------------------
G---6---6-7-----6-----4-----2-----1---------1---------------------------
D---------------------------------------2-------------------------------
A---------5-----4-----2-----0-----------------2-------------------------
E---------------------------------0-------------------------------------


e---------------7---------7---------------2-----------------------------
B---0-----------------------10---10-9.----------------------------------
G-------6-7-----7-------------------------2-----------------------------
D-----------------------------------------------------------------------
A---------------------------------------------2-2-----------------------
E---------7---------7-7-------------0-----------------------------------



e---0---0-4-----2-----0-------------------------------------------------
B---------------------------3-----2-------------------------------------
G---1---1-------------------------2---------2---------------------------
D---------------------------------------2---------2---------------------
A---------------------------------0-------------------------------------
E---------0-----2-----4-----0-----------------0-------------------------


e---------------9---------9-7---7-5-------------------------------------
B---2---3-5-----------------------------5-------------------------------
G---2---4-6-----9---------9-7---7-6-----6-------------------------------
D-----------------------------------------------------------------------
A---------0-----------0-----------0-----------0-------------------------
E-------------------0-----------------------0---------------------------


e---------------------5.----7\----4-----------2-------------------------
B---5---5-7.----5.----------5\--------------3-3-------------------------
G---6---6-7.----6.----6.----6\----------2-----2-------------------------
D---------------------------5\----0-----------0-------------------------
A---------0.----4.----0.------------------------------------------------
E-----------------------------------------------------------------------


e---2---2-10-----10-----9-----7.----12----------------------------------
B---3---3-7------7------7-----7.----10-----------10----9----------------
G---2---2-7-------------7-----------9------9-----9---------11-9---------
D---------0-------------------------------------------------------------
A---------------------0-------------0----------0------------------------
E-------------------------------------------------------------0---0-----


e---10.-----9.-----7.-----5---------------------------------------------
B---9---------------------5---------5-----------------------------------
G---9.------9.-----7.-----6---------6-----------------------------------
D-------------------------------7---------------------------------------
A-------------------------0---------------------------------------------
E----------------0--------------------0---------------------------------