20130716

BEATBOX GUITAR LITTLE SONG OF FIRST DESIRE TAB (FINGERPICKING GUITAR TAB)

Beatbox Guitar (Rob Mastrianni and Pete List) play "Little Song Of First Desire"
It's in BADGBE tuning (the low E string is tuned down with 5 frets)
Download the TAB under the video



BEATBOX GUITAR LITTLE SONG OF FIRST DESIRE TAB 

GP5 + GP6 + PDF >>

Part 1

e-10p7---7p0---0---10p7---7p0---0---10p7---7p0---0-------0-----0--------
B------0-----0---0------0-----0---0------0-----0-----7-----7-----7------
G-----------------------------------------------------------------------
D-----------------------------------------------------------------------
A-----------------------------------------------------------------------
B-0----------------0----------------8-----------------------------------


e-10p7---7p0---0---10p7---7p0---0---10p7---7p0---0-------0--------------
B------0-----0---0------0-----0---0------0-----0-----7-----0-----0------
G------------------------------------------------------------7----------
D-----------------------------------------------------------------------
A-----------------------------------------------------------------------
B-0----------------0----------------8-----------------------------------



e-10p7---7p0---0---10p7---7p0---0---10p7---7p0---0-------0-----0--------
B------0-----0---0------0-----0---0------0-----0-----7-----7-----7------
G-----------------------------------------------------------------------
D-----------------------------------------------------------------------
A-----------------------------------------------------------------------
B-0----------------0----------------8-----------------------------------


e-10p7---7p0---0---10p7---7p0---0---10p7---7p0---0-------0--------------
B------0-----0---0------0-----0---0------0-----0-----7-----0-----0------
G------------------------------------------------------------7----------
D-----------------------------------------------------------------------
A-----------------------------------------------------------------------
B-0----------------0----------------8-----------------------------------




Part 2

e---------0-----------0---0-----------0---------------0-----0-----------
B---------------------------0-------------0-----------------------------
G-------------9---9-----7-----6---------------6---6h7---6h7---6h7-------
D-----------------------------------------------------------------------
A-----------------------------------------------------------------------
B-0-------------------------------8-------------------------------------


e---------0-----------0-----0---------0------------------0-----0--------
B-----------------------------------------0-----------------------------
G-------------9---9----11----11---------------11---11h12--11----11------
D-----------------------------------------------------------------------
A-----------------------------------------------------------------------
B-0-------------------------------8-------------------------------------


e--------------------------------------0---------------0-----0----------
B------------------------------------------0----------------------------
G-------------9h11p9-------7---9---------------7---7-----7-----7--------
D-----------------------------------------------------------------------
A-----------------------------------------------------------------------
B-0--------------------------------8------------------------------------


e---------------------0-----0---------0---------------------------------
B---------8.--8.--8-----7-----------------0-----------------0-----------
G---------9.--9.--9-----7-----6---------------6h7-6h7p6-----------------
D-----------------------------------------------------------------------
A-----------------------------------------------------------------------
B-0-------------------------------8-------------------------------------




DOWNLOAD THIS TAB IN GUITAR PRO



  • click 'Free Download'
  • add your e-mail address
  • you will get an e-mail with your download links (in a few seconds)
  • download the Guitar Pro 6 tab + GP5 + PDF for free
  • and that's all ...


Guitar Pro: a complete workshop for guitarists at an affordable price