20130722

ERIC CLAPTON MOTHERLESS CHILD TAB


Motherless Child is a great acoustic song on the album called "From the Cradle"
It's in open G tuning (that is D G D G B D) with CAPO on the 4th fret
Download the TAB under the video



ERIC CLAPTON MOTHERLESS CHILD TAB

PDF >>

Intro

d-4-4-4-4-4-4-4-4--4-4-4-4-4-4-4-4--4-4-4-4-4-4-4-4---------------------
B-4-4-4-4-4-4-4-4--4-4-4-4-4-4-4-4--4-4-4-4-4-4-4-4---------------------
G-4-4-4-4-4-4-4-4--4-4-4-4-4-4-4-4--4-4-4-4-4-4-4-4---------------------
D-4-4-4-4-4-4-4-4--4-4-4-4-4-4-4-4--4-4-4-4-4-4-4-4---------------------
G-4-4-4-4-4-4-4-4--4-4-4-4-4-4-4-4--4-4-4-4-4-4-4-4---------------------
D-4-4-4-4-4-4-4-4--4-4-4-4-4-4-4-4--4-4-4-4-4-4-4-4---------------------


Verse 1

d-4-4-4-4-4-4-4-4--4-4-4-4--6-6-6-6-6-6-6-6--6-6-6-6-6-6-6-6------------
B-4-4-4-4-4-4-4-4--4-4-4-4--5-5-5-5-5-5-5-5--5-5-5-5-5-5-5-5------------
G-4-4-4-4-4-4-4-4--4-4-4-4--4-4-4-4-4-4-4-4--4-4-4-4-4-4-4-4------------
D-4-4-4-4-4-4-4-4--4-4-4-4--6-6-6-6-6-6-6-6--6-6-6-6-6-6-6-6------------
G-4-4-4-4-4-4-4-4--4-4-4-4--4-4-4-4-4-4-4-4--4-4-4-4-4-4-4-4------------
D-4-4-4-4-4-4-4-4--4-4-4-4--x-x-x-x-x-x-x-x--x-x-x-x-x-x-x-x------------



d-4-4-4-4-4-4-4-4--4-4-4-4-4-4-4-4--4-4-4-4-4-4-4-4---------------------
B-4-4-4-4-4-4-4-4--4-4-4-4-4-4-4-4--4-4-4-4-4-4-4-4---------------------
G-4-4-4-4-4-4-4-4--4-4-4-4-4-4-4-4--4-4-4-4-4-4-4-4---------------------
D-4-4-6-4-4-6-4-4--4-4-6-4-4-6-4-4--4-4-6-4-4-6-4-4---------------------
G-4-4-4-4-4-4-4-4--4-4-4-4-4-4-4-4--4-4-4-4-4-4-4-4---------------------
D-4-4-6-4-4-6-4-4--4-4-6-4-4-6-4-4--4-4-6-4-4-6-4-4---------------------


d-4-4-4-4-4-4-4-4--6-6-6-6-6-6-6-6--6-6-6-6-6-6-6-6---------------------
B-4-4-4-4-4-4-4-4--5-5-5-5-5-5-5-5--5-5-5-5-5-5-5-5---------------------
G-4-4-4-4-4-4-4-4--4-4-4-4-4-4-4-4--4-4-4-4-4-4-4-4---------------------
D-4-4-4-4-4-4-4-4--6-6-6-6-6-6-6-6--6-6-6-6-6-6-6-6---------------------
G-4-4-4-4-4-4-4-4--4-4-4-4-4-4-4-4--4-4-4-4-4-4-4-4---------------------
D-4-4-4-4-4-4-4-4--x-x-x-x-x-x-x-x--x-x-x-x-x-x-x-x---------------------


d-4-4-4-4-4-4-4-4--4-4-4-4-4-4-4-4--4-4-4-4-4-4-4-4---------------------
B-4-4-4-4-4-4-4-4--4-4-4-4-4-4-4-4--4-4-4-4-4-4-4-4---------------------
G-4-4-4-4-4-4-4-4--4-4-4-4-4-4-4-4--4-4-4-4-4-4-4-4---------------------
D-4-4-6-4-4-6-4-4--4-4-6-4-4-6-4-4--4-4-6-4-4-6-4-4---------------------
G-4-4-4-4-4-4-4-4--4-4-4-4-4-4-4-4--4-4-4-4-4-4-4-4---------------------
D-4-4-6-4-4-6-4-4--4-4-6-4-4-6-4-4--4-4-6-4-4-6-4-4---------------------


d-6-6-6-6-6-6-6-6--6-6-6-6-6-6-6-6--------------------------------------
B-5-5-5-5-5-5-5-5--5-5-5-5-5-5-5-5--------------------------------------
G-6-6-6-6-6-6-6-6--6-6-6-6-6-6-6-6--------------------------------------
D-4-4-4-4-4-4-4-4--4-4-4-4-4-4-4-4--------------------------------------
G-4-4-4-4-4-4-4-4--4-4-4-4-4-4-4-4--------------------------------------
D-4-4-4-4-4-4-4-4--4-4-4-4-4-4-4-4--------------------------------------


d-4-4-4-4-4-4-4-4--4-4-4-4-4-4-4-4--4-4-4-4-4-4-4-4---------------------
B-4-4-4-4-4-4-4-4--4-4-4-4-4-4-4-4--4-4-4-4-4-4-4-4---------------------
G-4-4-4-4-4-4-4-4--4-4-4-4-4-4-4-4--4-4-4-4-4-4-4-4---------------------
D-4-4-6-4-4-6-4-4--4-4-6-4-4-6-4-4--4-4-6-4-4-6-4-4---------------------
G-4-4-4-4-4-4-4-4--4-4-4-4-4-4-4-4--4-4-4-4-4-4-4-4---------------------
D-4-4-6-4-4-6-4-4--4-4-6-4-4-6-4-4--4-4-6-4-4-6-4-4---------------------


Verse 2 3 4 5

d-4-4-4-4-4-4-4-4--6-6-6-6-6-6-6-6--6-6-6-6-6-6-6-6---------------------
B-4-4-4-4-4-4-4-4--5-5-5-5-5-5-5-5--5-5-5-5-5-5-5-5---------------------
G-4-4-4-4-4-4-4-4--4-4-4-4-4-4-4-4--4-4-4-4-4-4-4-4---------------------
D-4-4-4-4-4-4-4-4--6-6-6-6-6-6-6-6--6-6-6-6-6-6-6-6---------------------
G-4-4-4-4-4-4-4-4--4-4-4-4-4-4-4-4--4-4-4-4-4-4-4-4---------------------
D-4-4-4-4-4-4-4-4--x-x-x-x-x-x-x-x--x-x-x-x-x-x-x-x---------------------


d-4-4-4-4-4-4-4-4--4-4-4-4-4-4-4-4--4-4-4-4-4-4-4-4---------------------
B-4-4-4-4-4-4-4-4--4-4-4-4-4-4-4-4--4-4-4-4-4-4-4-4---------------------
G-4-4-4-4-4-4-4-4--4-4-4-4-4-4-4-4--4-4-4-4-4-4-4-4---------------------
D-4-4-6-4-4-6-4-4--4-4-6-4-4-6-4-4--4-4-6-4-4-6-4-4---------------------
G-4-4-4-4-4-4-4-4--4-4-4-4-4-4-4-4--4-4-4-4-4-4-4-4---------------------
D-4-4-6-4-4-6-4-4--4-4-6-4-4-6-4-4--4-4-6-4-4-6-4-4---------------------


d-4-4-4-4-4-4-4-4--6-6-6-6-6-6-6-6--6-6-6-6-6-6-6-6---------------------
B-4-4-4-4-4-4-4-4--5-5-5-5-5-5-5-5--5-5-5-5-5-5-5-5---------------------
G-4-4-4-4-4-4-4-4--4-4-4-4-4-4-4-4--4-4-4-4-4-4-4-4---------------------
D-4-4-4-4-4-4-4-4--6-6-6-6-6-6-6-6--6-6-6-6-6-6-6-6---------------------
G-4-4-4-4-4-4-4-4--4-4-4-4-4-4-4-4--4-4-4-4-4-4-4-4---------------------
D-4-4-4-4-4-4-4-4--x-x-x-x-x-x-x-x--x-x-x-x-x-x-x-x---------------------


d-4-4-4-4-4-4-4-4--4-4-4-4-4-4-4-4--4-4-4-4-4-4-4-4---------------------
B-4-4-4-4-4-4-4-4--4-4-4-4-4-4-4-4--4-4-4-4-4-4-4-4---------------------
G-4-4-4-4-4-4-4-4--4-4-4-4-4-4-4-4--4-4-4-4-4-4-4-4---------------------
D-4-4-6-4-4-6-4-4--4-4-6-4-4-6-4-4--4-4-6-4-4-6-4-4---------------------
G-4-4-4-4-4-4-4-4--4-4-4-4-4-4-4-4--4-4-4-4-4-4-4-4---------------------
D-4-4-6-4-4-6-4-4--4-4-6-4-4-6-4-4--4-4-6-4-4-6-4-4---------------------


d-6-6-6-6-6-6-6-6--6-6-6-6-6-6-6-6--------------------------------------
B-5-5-5-5-5-5-5-5--5-5-5-5-5-5-5-5--------------------------------------
G-6-6-6-6-6-6-6-6--6-6-6-6-6-6-6-6--------------------------------------
D-4-4-4-4-4-4-4-4--4-4-4-4-4-4-4-4--------------------------------------
G-4-4-4-4-4-4-4-4--4-4-4-4-4-4-4-4--------------------------------------
D-4-4-4-4-4-4-4-4--4-4-4-4-4-4-4-4--------------------------------------


d-4-4-4-4-4-4-4-4--4-4-4-4-4-4-4-4--4-4-4-4-4-4-4-4---------------------
B-4-4-4-4-4-4-4-4--4-4-4-4-4-4-4-4--4-4-4-4-4-4-4-4---------------------
G-4-4-4-4-4-4-4-4--4-4-4-4-4-4-4-4--4-4-4-4-4-4-4-4---------------------
D-4-4-6-4-4-6-4-4--4-4-6-4-4-6-4-4--4-4-6-4-4-6-4-4---------------------
G-4-4-4-4-4-4-4-4--4-4-4-4-4-4-4-4--4-4-4-4-4-4-4-4---------------------
D-4-4-6-4-4-6-4-4--4-4-6-4-4-6-4-4--4-4-6-4-4-6-4-4---------------------


Last verse

d-4-4-4-4-4-4-4-4--6-6-6-6-6-6-6-6--6-6-6-6-6-6-6-6---------------------
B-4-4-4-4-4-4-4-4--5-5-5-5-5-5-5-5--5-5-5-5-5-5-5-5---------------------
G-4-4-4-4-4-4-4-4--4-4-4-4-4-4-4-4--4-4-4-4-4-4-4-4---------------------
D-4-4-4-4-4-4-4-4--6-6-6-6-6-6-6-6--6-6-6-6-6-6-6-6---------------------
G-4-4-4-4-4-4-4-4--4-4-4-4-4-4-4-4--4-4-4-4-4-4-4-4---------------------
D-4-4-4-4-4-4-4-4--x-x-x-x-x-x-x-x--x-x-x-x-x-x-x-x---------------------


d-4-4-4-4-4-4-4-4--4-4-4-4-4-4-4-4--4-4-4-4-4-4-4-4---------------------
B-4-4-4-4-4-4-4-4--4-4-4-4-4-4-4-4--4-4-4-4-4-4-4-4---------------------
G-4-4-4-4-4-4-4-4--4-4-4-4-4-4-4-4--4-4-4-4-4-4-4-4---------------------
D-4-4-6-4-4-6-4-4--4-4-6-4-4-6-4-4--4-4-6-4-4-6-4-4---------------------
G-4-4-4-4-4-4-4-4--4-4-4-4-4-4-4-4--4-4-4-4-4-4-4-4---------------------
D-4-4-6-4-4-6-4-4--4-4-6-4-4-6-4-4--4-4-6-4-4-6-4-4---------------------


d-4-4-4-4-4-4-4-4--6-6-6-6-6-6-6-6--6-6-6-6-6-6-6-6---------------------
B-4-4-4-4-4-4-4-4--5-5-5-5-5-5-5-5--5-5-5-5-5-5-5-5---------------------
G-4-4-4-4-4-4-4-4--4-4-4-4-4-4-4-4--4-4-4-4-4-4-4-4---------------------
D-4-4-4-4-4-4-4-4--6-6-6-6-6-6-6-6--6-6-6-6-6-6-6-6---------------------
G-4-4-4-4-4-4-4-4--4-4-4-4-4-4-4-4--4-4-4-4-4-4-4-4---------------------
D-4-4-4-4-4-4-4-4--x-x-x-x-x-x-x-x--x-x-x-x-x-x-x-x---------------------


d-4-4-4-4-4-4-4-4--4-4-4-4-4-4-4-4--4-4-4-4-4-4-4-4---------------------
B-4-4-4-4-4-4-4-4--4-4-4-4-4-4-4-4--4-4-4-4-4-4-4-4---------------------
G-4-4-4-4-4-4-4-4--4-4-4-4-4-4-4-4--4-4-4-4-4-4-4-4---------------------
D-4-4-6-4-4-6-4-4--4-4-6-4-4-6-4-4--4-4-6-4-4-6-4-4---------------------
G-4-4-4-4-4-4-4-4--4-4-4-4-4-4-4-4--4-4-4-4-4-4-4-4---------------------
D-4-4-6-4-4-6-4-4--4-4-6-4-4-6-4-4--4-4-6-4-4-6-4-4---------------------


d-6-6-6-6-6-6-6-6--6-6-6-6-6-6-6-6--------------------------------------
B-5-5-5-5-5-5-5-5--5-5-5-5-5-5-5-5--------------------------------------
G-6-6-6-6-6-6-6-6--6-6-6-6-6-6-6-6--------------------------------------
D-4-4-4-4-4-4-4-4--4-4-4-4-4-4-4-4--------------------------------------
G-4-4-4-4-4-4-4-4--4-4-4-4-4-4-4-4--------------------------------------
D-4-4-4-4-4-4-4-4--4-4-4-4-4-4-4-4--------------------------------------


d-4-4-4-4-4-4-4-4--4-4-4-4-4-4-4-4------------------------4-------------
B-4-4-4-4-4-4-4-4--4-4-4-4-4-4-4-4------------------------4-------------
G-4-4-4-4-4-4-4-4--4-4-4-4-4-4-4-4--13.---13-11.---7/8.---4-------------
D-4-4-6-4-4-6-4-4--4-4-6-4-4-6-4-4--x---------------------4-------------
G-4-4-4-4-4-4-4-4--4-4-4-4-4-4-4-4--13.---13-11.---7/8.---4-------------
D-4-4-6-4-4-6-4-4--4-4-6-4-4-6-4-4------------------------4-------------