20130719

JOHN MAYER YOUR BODY IS A WONDERLAND SOLO TAB


John Mayer - Your Body Is A Wonderland acoustic guitar solo lesson by Deaktee
It's quite hard to reach those higher notes
Download the TAB under the video



YOUR BODY IS A WONDERLAND SOLO TAB

PDF >>

Solo

e-12p10.----------------------------------------------------------------
B----------13.-----9/10.-----8.-----6---------------6h8.---10\8---------
G-12--------------------------------------------------------------------
D----------14.-----9/10.-----8.-----7---------------7/8.---10\8---------
A-----------------------------------------------------------------------
E-----------------------------------------------------------------------


e-12p10.-------------------10.-----7------------------------------------
B----------13.-----10.--------------------------------------------------
G-12-----------------------10.-----7------------------------------------
D----------14.-----10.--------------------------------------------------
A-----------------------------------------------------------------------
E-----------------------------------------------------------------------


e-12p10.----------------------------------------------------------------
B----------13.-----9/10.-----8.-----6---------------6h8.---10\8---------
G-12--------------------------------------------------------------------
D----------14.-----9/10.-----8.-----7---------------7/8.---10\8---------
A-----------------------------------------------------------------------
E-----------------------------------------------------------------------


e-12p10.-------------------15.-----12-----------------------------------
B----------13.-----10.--------------------------------------------------
G-12-----------------------16.-----12-----------------------------------
D----------14.-----10.--------------------------------------------------
A-----------------------------------------------------------------------
E-----------------------------------------------------------------------