20130717

JOSÉ FELICIANO ZORBA THE GREEK TAB


José Feliciano plays Zorba the Greek with a classical guitar
Amazing guitar playing live on stage
Download the TAB under the video



JOSÉ FELICIANO ZORBA THE GREEK TAB


Intro

e-6-7-------0---------6---9-7-6-7-9-7-6-7-9-7-6-7-7-7----------0--------
B-8-9-------0---------8---9-9-8-9-9-9-8-9-9-9-8-9-9-9----------0--------
G-----------1--------------------------------------------------1--------
D-----------2--------------------------------------------------2--------
A-----------2--------------------------------------------------2--------
E-----------0--------------------------------------------------0--------



Part 1

e-6---7.---7---7.---7---7.---7---7.---7---7.---7---7.-------------------
B-8---9.---9---9.---9---9.---9---9.---9---9.---9---9.-------------------
G-----------------------------------------------------------------------
D-----------------------------------------------------------------------
A-----------------------------------------------------------------------
E-----------------------------------------------------------------------



e-7h9p7-6---7---9-7-9-7-9-7---------------------------------------------
B-9-----8---9---9-9-9-9-9-9---------------------------------------------
G-----------------------------------------------------------------------
D-----------------------------------------------------------------------
A-----------------------------------------------------------------------
E-----------------------------------------------------------------------


e-6---7.---7---7.---7---7.---7---7.---7---7.---7---7.-------------------
B-8---9.---9---9.---9---9.---9---9.---9---9.---9---9.-------------------
G-----------------------------------------------------------------------
D-----------------------------------------------------------------------
A-----------   slowly getting faster     -------------------------------
E-----------------------------------------------------------------------


e-7h9p7-6---7---9-7-9-7-------------------------------------------------
B-9-----8---9---9-9-9-9-------------------------------------------------
G-----------------------------------------------------------------------
D-----------------------------------------------------------------------
A-----------------------------------------------------------------------
E-----------------------------------------------------------------------


e-4---5.---5---5.---5---5.---5---5.---5---5.---5---5.-------------------
B-6---7.---7---7.---7---7.---7---7.---7---7.---7---7.-------------------
G-----------------------------------------------------------------------
D-----------------------------------------------------------------------
A-----------------------------------------------------------------------
E-----------------------------------------------------------------------


e-5h7p5-4---5---7-5-7-5-7-5---------------------------------------------
B-7-----6---7---7-7-7-7-7-7---------------------------------------------
G-----------------------------------------------------------------------
D-----------------------------------------------------------------------
A-----------------------------------------------------------------------
E-----------------------------------------------------------------------


e-4---5.---5---5.---5---5.---5---5.---5---5.---5---5.---5---5.---5---5.-
B-6---7.---7---7.---7---7.---7---7.---7---7.---7---7.---7---7.---7---7.-
G-----------------------------------------------------------------------
D-----------------------------------------------------------------------
A-----------------------------------------------------------------------
E-----------------------------------------------------------------------


e-6---7.---7---7.---7---7.---7---7.---7---7.---7---7.---7-9-6-7-9-7-9-7-
B-8---9.---9---9.---9---9.---9---9.---9---9.---9---9.---9-9-8-9-9-9-9-9-
G-----------------------------------------------------------------------
D-----------------------------------------------------------------------
A-----------------------------------------------------------------------
E-----------------------------------------------------------------------


e-6---7.---7---7.---7---7.---7---7.---7---7.---7---7.---7-9-6-7-9-7-9-7-
B-8---9.---9---9.---9---9.---9---9.---9---9.---9---9.---9-9-8-9-9-9-9-9-
G-----------------------------------------------------------------------
D-----------------------------------------------------------------------
A-----------------------------------------------------------------------
E-----------------------------------------------------------------------


e-4---5.---5---5.---5---5.---5---5.---5---5.---5---5.---5-7-4-5-7-5-7-5-
B-6---7.---7---7.---7---7.---7---7.---7---7.---7---7.---7-7-6-7-7-7-7-7-
G-----------------------------------------------------------------------
D-----------------------------------------------------------------------
A-----------------------------------------------------------------------
E-----------------------------------------------------------------------


e-----0-------0-------0-------0-------0-------0-------0-------0---------
B-----0-------0-------0-------0-------0-------0-------0-------0---------
G-----1-------1-------1-------1-------1-------1-------1-------1---------
D-----------------------------------------------------------------------
A---------2---------------2---------------2---------------2-------------
E-0---------------0---------------0---------------0---------------------


Part 2

e-----4---4---4---4---4-3-4-5-4-------4---4---4---4---4-3-4-5-4---------
B-----5---5---5---5-----------5-------5---5---5---5-----------5---------
G-----------------------------------------------------------------------
D-----------------------------------------------------------------------
A-----------------------------------------------------------------------
E-0-------------------------------0-------------------------------------


e------------------------------7--------------------------------7-------
B-----9---9---9---9---9-8-9-10-9-------9---9---9---9---9-8-9-10-9-------
G-----9---9---9---9--------------------9---9---9---9--------------------
D-----------------------------------------------------------------------
A-----------------------------------------------------------------------
E-0--------------------------------0------------------------------------