20130728

PINK PANTHER THEME TAB (FINGERPICKING ACOUSTIC GUITAR TAB)

Pink Panther theme song acoustic guitar cover played by Chichab El Khachab
Amazing fingerpicking guitar song arranged in standard tuning
Download the TAB under the video



PINK PANTHER THEME FINGERPICKING TAB


e-----------13---------13----------13------13---13---13---13---13-------
B----------12-------------12---------12-----12---12---12---12---12------
G---------15-----------------15--------15----15---15---15---15---15-----
D--------14---------------------14-------14---14---14---14---14---14----
A-----------------------------------------------------------------------
E-0---------------------------------------------------------------------


e-13---13---13------13--------------------------------------------------
B--12---12----12--------------------------------------------------------
G---15---15-----15------------------------------------------------------
D----14---14------14----------------------------------------------------
A-----------------------------------------------------------------------
E-----------------------------------------------------------------------



e-----------------------------------------------------------------------
B-----------------------------------------------------------------------
G-----------------------------------------------------------------------
D-6/7.--8/9--------------------------6/7.--8/9--------------------------
A-4/5.--6/7--------------------------4/5.--6/7--------------------------
E------------------7-------0-------------------------7-------0----------


e------------------2h3.--------------2h3.---8-7.----------7-6-----------
B-----------------------------4h5.-------------------8.-----------------
G-------8/9.---------------------------------------9--------------------
D-6/7.--8/9.------------------------------------------------------------
A-4/5.--6/7.---------2.----------------2.-----7.---7-6.---4-3-----------
E-------------------------------0.--------------------------------------


e-------------5p3-------------------------------------------------------
B-5---------------5p3-5---------5.--------------------------------------
G-------3-----------------3-----3.--------------------------------------
D---5-----------5-----------5---5.--------------------------------------
A-------------------------3---------------------------------------------
E---------3-------------------------------------------------------------


e------------------2h3.--------------2h3.---8-7.-----7.---12-11---------
B-----------------------------4h5.-----------------8--------------------
G-------8/9.------------------------------------------------------------
D-6/7.--8/9.------------------------------------------------------------
A-4/5.--6/7.---------2.----------------2.-----7.---7-6.---7--8----------
E-------------------------------0.--------------------------------------


e-----------------------------------x-----------------------------------
B-10--------------x-----------4-----x-----------------------------------
G---------8-------x-----------------x-----------------------------------
D----10-----------x-------------3---x-----------------------------------
A-----------------x-----------------x-----------------------------------
E-------------------------1---------x-----------------------------------


e------------------2h3.--------------2h3.---8-7.----------7-6-----------
B-----------------------------4h5.-------------------8.-----------------
G-------8/9.---------------------------------------9--------------------
D-6/7.--8/9.------------------------------------------------------------
A-4/5.--6/7.---------2.----------------2.-----7.---7-6.---4-3-----------
E-------------------------------0.--------------------------------------


e-------------5p3-------------------------------------------------------
B-5---------------5p3-5---------5.--------------------------------------
G-------3-----------------3-----3.--------------------------------------
D---5-----------5-----------5---5.--------------------------------------
A-------------------------3---------------------------------------------
E---------3-------------------------------------------------------------