20130722

THE CONNELS 74 75 TAB


There is a great acoustic guitar solo in The Connels - 74 75
It's in half-step down tuning (that is D# G# C# F# A# D#)
Download the TAB of the complete song below



THE CONNELS -74-75 TAB

PDF >>

SOLO

eb-------------------------5-----------------------------------3--------
Bb-5-----------5---------------8---5------------5-8-\-------------------
Gb-5---7---5---5---7---5------------------------------4-5--------4------
Db-----7---5-------7---5------------------------------------------------
Ab----------------------------------------------------------------------
Eb----------------------------------------------------------------------


eb----------------------------------------------------------------------
Bb----------------------------------------------------------------------
Gb-5-4h5-5-4-\--0------------0h2h4h5-------4.---2.---0-0h2~-------------
Db----------------------------------------------------------------------
Ab----------------------------------------------------------------------
Eb----------------------------------------------------------------------



eb-------------------------5----------------------5-------5-------------
Bb-5-----------5---------------8---5------------5---8---5---8---5-------
Gb-5---7---5---5---7---5------------------------------------------5-----
Db-----7---5-------7---5------------------------------------------------
Ab----------------------------------------------------------------------
Eb----------------------------------------------------------------------


eb----------------------------------------------------------------------
Bb-5h6------5-----------------------------------------------------------
Gb-------------------------------5---4---2------------------------------
Db----------------------------------------------------------------------
Ab----------------------------------------------------------------------
Eb----------------------------------------------------------------------


Intro

eb-------------------0-0-------3-3----------0-0-0-0---0-0---0-----------
Bb-------------------1-1-------3-3----------1-1-1-0---1-1---1-----------
Gb-------------------0-0---0---0-0----------2-2-2-2---2-2---2---0-0-----
Db-------2p0-----2---------0---0-0---2------2-2-2-2---2-2---2---0-0-----
Ab-0---------3-0-3---------2---2-2-0---0----0-0-0-0---0-0---0-----------
Eb-------------------------3---3-3--------------------------------------


eb-------------------0-0-------3-3----------0-0-0-0---0-0---0-----------
Bb-------------------1-1-------3-3----------1-1-1-0---1-1---1-----------
Gb-------------------0-0---0---0-0-2---2----2-2-2-2---2-2---2---0-0-----
Db-------2p0-----2---------0---0-0-2---2----2-2-2-2---2-2---2---0-0-----
Ab-0---------3-0-3---------2---2-2-0---0----0-0-0-0---0-0---0-----------
Eb-------------------------3---3-3--------------------------------------


Verse

eb-1-------------0-------------1-------------0-----0--------------------
Bb-1-------------1-------------1-------------1-----1--------------------
Gb-2-------------0-------------2-------------0-----0--------------------
Db-3-------------2-------------3-------------2-----x--------------------
Ab-3-------------3-------------3-------------3-----2--------------------
Eb-1---------------------------1----------------------------------------


eb-1-------------0-------------0-------------0---0----------------------
Bb-1-------------1-------------1-------------0---1----------------------
Gb-2-------------0-------------2-------------2---2----------------------
Db-3-------------2-------------2-------------2---2----------------------
Ab-3-------------3-------------0-------------0---0----------------------
Eb-1--------------------------------------------------------------------


eb-1-------------0-------------1-------------0-----0--------------------
Bb-1-------------1-------------1-------------1-----1--------------------
Gb-2-------------0-------------2-------------0-----0--------------------
Db-3-------------2-------------3-------------2-----x--------------------
Ab-3-------------3-------------3-------------3-----2--------------------
Eb-1---------------------------1----------------------------------------


eb-1-------------0-------------3----------------------------------------
Bb-1-------------1-------------3----------------------------------------
Gb-2-------------0-------------0----------------------------------------
Db-3-------------2-------------0----------------------------------------
Ab-3-------------3-------------2----------------------------------------
Eb-1---------------------------3----------------------------------------


Chorus

eb-0-------------0-------------3-------------1--------------------------
Bb-1-------------1-------------3-------------1--------------------------
Gb-2-------------0-------------0-------------2--------------------------
Db-2-------------2-------------0-------------3--------------------------
Ab-0-------------3-------------2-------------3--------------------------
Eb-----------------------------3-------------1--------------------------


eb-0-------------0-------------3----------------------------------------
Bb-1-------------1-------------3----------------------------------------
Gb-2-------------0-------------0----------------------------------------
Db-2-------------2-------------0----------------------------------------
Ab-0-------------3-------------2----------------------------------------
Eb-----------------------------3----------------------------------------

Verse 2

eb-1-------------0-------------1-------------0-----0--------------------
Bb-1-------------1-------------1-------------1-----1--------------------
Gb-2-------------0-------------2-------------0-----0--------------------
Db-3-------------2-------------3-------------2-----x--------------------
Ab-3-------------3-------------3-------------3-----2--------------------
Eb-1---------------------------1----------------------------------------


eb-1-------------0-------------0-------------0---0----------------------
Bb-1-------------1-------------1-------------0---1----------------------
Gb-2-------------0-------------2-------------2---2----------------------
Db-3-------------2-------------2-------------2---2----------------------
Ab-3-------------3-------------0-------------0---0----------------------
Eb-1--------------------------------------------------------------------


eb-1-------------0-------------0-----0-------1--------------------------
Bb-1-------------1-------------1-----1-------1--------------------------
Gb-2-------------0-------------2-----0-------2--------------------------
Db-3-------------2-------------2-----2-------3--------------------------
Ab-3-------------3-------------0-----3-------3--------------------------
Eb-1-----------------------------------------1--------------------------


eb-0-------------0-------------3----------------------------------------
Bb-1-------------1-------------3----------------------------------------
Gb-2-------------0-------------0----------------------------------------
Db-2-------------2-------------0----------------------------------------
Ab-0-------------3-------------2----------------------------------------
Eb-----------------------------3----------------------------------------


Chorus 2 = Chorus 1 (2x)

Intro again

Solo

eb-0-------------3-------------0-------------0---0----------------------
Bb-1-------------3-------------1-------------0---1----------------------
Gb-0-------------0-------------2-------------2---2----------------------
Db-2-------------0-------------2-------------2---2----------------------
Ab-3-------------2-------------0-------------0---0----------------------
Eb---------------3------------------------------------------------------


eb-0-------------3-------------0-------------0---0----------------------
Bb-1-------------3-------------1-------------0---1----------------------
Gb-0-------------0-------------2-------------2---2----------------------
Db-2-------------0-------------2-------------2---2----------------------
Ab-3-------------2-------------0-------------0---0----------------------
Eb---------------3------------------------------------------------------


eb-0-------------3-------------0-------------1--------------------------
Bb-1-------------3-------------1-------------1--------------------------
Gb-0-------------0-------------2-------------2--------------------------
Db-2-------------0-------------2-------------3--------------------------
Ab-3-------------2-------------0-------------3--------------------------
Eb---------------3---------------------------1--------------------------


eb-0-------------3------------------------------------------------------
Bb-1-------------3------------------------------------------------------
Gb-0-------------0------------------------------------------------------
Db-2-------------0------------------------------------------------------
Ab-3-------------2------------------------------------------------------
Eb---------------3------------------------------------------------------


Verse 3 = Verse 2

Chorus till the end ...