20130816

AVICII WAKE ME UP TAB (ACOUSTIC GUITAR TABS)


Avicii - Wake Me Up acoustic guitar lesson played by Deaktee
Standard tuning with CAPO on the 2nd fret
Download the TAB under the video



AVICII WAKE ME UP TAB                                  

PDF >>

Intro / Chorus

  Am              F               C               C       G

e-0---0---0-0-0-0-1---1---1-1-1-1-0---0---0-0-0-0-0---0-0-3---3-3-------
B-1---1---1-1-1-1-1---1---1-1-1-1-1---1---1-1-1-1-1---1-1-0---0-0-------
G-2---2---2-2-2-2-2---2---2-2-2-2-0---0---0-0-0-0-0---0-0-0---0-0-------
D-2---2---2-2-2-2-3---3---3-3-3-3-2---2---2-2-2-2-2---2-2-0---0-0-------
A-0---0---0-0-0-0-3---3---3-3-3-3-3---3---3-3-3-3-3---3-3-2---2-2-------
E-----------------1---1---1-1-1-1-------------------------3---3-3-------


  Am              F               C               C       E

e-0---0---0-0-0-0-1---1---1-1-1-1-0---0---0-0-0-0-0---0-0-0---0-0-------
B-1---1---1-1-1-1-1---1---1-1-1-1-1---1---1-1-1-1-1---1-1-0---0-0-------
G-2---2---2-2-2-2-2---2---2-2-2-2-0---0---0-0-0-0-0---0-0-1---1-1-------
D-2---2---2-2-2-2-3---3---3-3-3-3-2---2---2-2-2-2-2---2-2-2---2-2-------
A-0---0---0-0-0-0-3---3---3-3-3-3-3---3---3-3-3-3-3---3-3-2---2-2-------
E-----------------1---1---1-1-1-1-------------------------0---0-0-------


Verse

  Am              F               C               C

e-0---0---0-0-0-0-1---1---1-1-1-1-0---0---0-0-0-0-0---0---0-0-0-0-------
B-1---1---1-1-1-1-1---1---1-1-1-1-1---1---1-1-1-1-1---1---1-1-1-1-------
G-2---2---2-2-2-2-2---2---2-2-2-2-0---0---0-0-0-0-0---0---0-0-0-0-------
D-2---2---2-2-2-2-3---3---3-3-3-3-2---2---2-2-2-2-2---2---2-2-2-2-------
A-0---0---0-0-0-0-3---3---3-3-3-3-3---3---3-3-3-3-3---3---3-3-3-3-------
E-----------------1---1---1-1-1-1---------------------------------------




Solo

e-----------------------------------------------------------------------
B---------------------------------1.------1-----1-3-1-3---3/5---1-------
G-2.------2-----0-2-5-2---2-0-2-0---------------------------------------
D-----------------------------------------------------------------------
A-----------------------------------------------------------------------
E-----------------------------------------------------------------------



Strumming pattern:

down   down    down-up-down-up
down   down    down-up-down-up
down   down    down-up-down-up
down   down-up-down   down-up