20130806

BOHEMIAN RHAPSODY ACOUSTIC FINGERSTYLE GUITAR TAB


Queen - Bohemian Rhapsody acoustic fingerstyle guitar cover by "enunc8r"
It's arranged by Edgar Cruz in standard tuning and no Capo is used
Download the TAB under the video



BOHEMIAN RHAPSODY FINGERSTYLE TAB                                  


Part 1

e-5---5---5---5---5---5-----------5---5---5---5-----5-2-----------------
B-7---7---7---7---7---7-----------7---7---7---7-----7-4-----------------
G-9---9---9---9---9---9-----------8---8---9---8-----6-4-----------------
D-----------------------------------------------------------------------
A-----------------------------------------------------------------------
E-----------------------------------------------------------------------


e-4---4---4.--5-----------4-----------5---5---5---5.--------------------
B-5---5---5.--7-----------5-----------5---5---7---5.--7---5-------------
G-7---7---7.--7-----------7-----------6---6---7---6.--7---6-------------
D-----------------------------------------------------9---7-------------
A-----------------------------7---7---0---------------------------------
E-----------------------------------------------------------------------



e-----------------2---------------------------0-------------------------
B-2---2---2---2-------2-----------2---2---3---2-------2---/-------------
G-2-----------------------2---2---0-------4---0-------2---/-------------
D-4---------------------------4-----------5-----------------------------
A---------------------------------0-------------------------------------
E-2---------------------------------------------------------------------


e-------------5.-------10.-------10.----------------------------------9-
B-7~------7~------12--------10-----------------7---7---7---7------7-----
G-7~--7~----------12--------11-----------------7----------------------7-
D-0--------------------------------------------7------------------------
A-----------------------------------------------------------------------
E----------------------------------------------7------------------------


e-0---0---0h2---0-------0---2-4.-----6---6---5-\-----4---4---5-\--------
B-0-----------------3.--0------------6---6---5-\-----4---4---5-\--------
G-1----------------------------------7---7---6-\-----5---5---6-\--------
D-----------------------------------------------------------------------
A-----------------------------------------------------------------------
E-0---------------------------------------------------------------------


e-6---6---5-\-----4---4---5-\-------------------------------------------
B-6---6---5-\-----4---4---5-\-------------------------------------------
G-7---7---6-\-----5---5---6-\-------------------------------------------
D-----------------------------------------------------------------------
A-----------------------------------------------------------------------
E-----------------------------------------------------------------------


e-2---2---2---2.--0h2p0------5-------5---5---5---5.--4-------0---0------
B-3--------------------------5-------4---4---4---4.--5-------3---0------
G-2--------------------------2-----------------------4-------4---1------
D-0----------------------------------4---4---4---4.--2-------6---2------
A-----------------4------------------3---3---3---3.---------------------
E-----------------------------------------------------------------------


e-4-----------0---10~---------------------------------------------------
B-5---0-----------12~---------------------------------------------------
G-7-------7-------13~---------------------------------------------------
D-----------------------------------------------------------------------
A-----------------------------------------------------------------------
E-0---------------------------------------------------------------------


Part 2

e-------------------------2<14>-------0<12>-----------------------------
B---------------------2-------------------------------------------------
G-1--h2---2-------2------ natural harmonics ----------------------------
D-------------2-------------------------------2-------------------------
A---------0-------------------------------------------------------------
E-----------------------------------------------------------------------


e-----------------2<14>-------0<12>-------------------------------------
B-------------2---------------------------------------------------------
G-2-------2-------------------------------------------------------------
D-----2-------------------------------2---------------------------------
A-0---------------------------------------------------------------------
E-----------------------------------------------------------------------


e-----------------2<14>-------0<12>-------------------------------------
B-2---2-------2---------------------------------------------------------
G-2---2---2---------------------------2---------------------------------
D-----2-----------------------------------------------------------------
A-0---------------------------------------------------------------------
E-----------------------------------------------------------------------


e-----------------4<16>-------2<14>-------------------------------------
B-0-----2-----2-----------------------2-2-------------------------------
G-----2---2-------------------------------------------------------------
D-----------------------------------------------------------------------
A-----4-----------------------------------------------------------------
E-2---------------------------------------------------------------------


e------------------9<21>-------7<19>------------------------------------
B-------------------------------------------7---------------------------
G-7---9---7---11----------------------------7---9---7-------------------
D---------9--------9-----------9-------11-----------9---11--------------
A-----9-----------------------------------------9-----------------------
E-7-----------------------------------------7---------------------------


e-------------7---------------------------------------------------------
B-----------------------------------------------------------------------
G-----7---9-------------------------------------------------------------
D-9---------------------------------------------------------------------
A-7---------------------------------------------------------------------
E-0---------------------------------------------------------------------