20130814

EVANESCENCE MY IMMORTAL TAB (FINGERSTYLE GUITAR TAB)


Evanescence - My Immortal fingerstyle guitar cover played by Ruel
It's arranged in standard tuning and no Capo is used
Download the TAB under the video



MY IMMORTAL FINGERSTYLE TAB

GP5 + GP6 + PDF >>

Part 1

e-------------------9---------------------------------9-----------------
B----------10---------------10----------------9---------------9---------
G------9--------9-------9--------9--------9-------9-------9-------9-----
D-11---------------------------------11---------------------------------
A-0---------------------------------------------------------------------
E------------------------------------9----------------------------------


e------------------------------------------------------9----------------
B----------10-------12-------10----------------9------------------------
G------9--------9--------9--------9--------9-------9--------------------
D-11----------------------------------11--------------------------------
A-0---------------------------------------------------------------------
E-------------------------------------9---------------------------------



Part 2

e-----------------------------------------------------------------------
B-----------------------------2-2-----------------2---------------------
G---------2---2---2---2-2-----------------1---------------1-------------
D-----2-------2-------2---------------2-------2-------2-------2---------
A-0-----------------------0-------4-------------------------------------
E-----------------------------------------------------------------------


e-----------------------------------------------------------------------
B-------------------------------------2-------3---2---------------------
G---------2---2---2---2-2-----2---------------------------1-------------
D-----2-------2-------2-------2-----------2-----------2-------2---------
A-0-----------------------0-------4-------------------------------------
E-----------------------------------------------------------------------


e-------------------------------------0---0-----------------------------
B---5-5-5-5---3-2-----------------------------3---2---0-2-----2---------
G---------2---------------2---------------1-------1-----------1---------
D-----2-------2-------2-------2---------------------------2-------------
A-0---------------0---------------4-------------------------------------
E-----------------------------------------------------------------------


e---------------------------------------0-0-0-----0-------4---5-5-------
B-------5-5---5---5---2-5-----------------------------2-----------------
G---2-----2---------------2---------------1-------1---------------------
D-----2-------2---------------2-------2-------2-------------------------
A-0---------------0---------------4-------------------------------------
E-----------------------------------------------------------------------


e-------------4---4---4---4---4-5-------2-----4---4---4---4---5---------
B-------------5-----------5-------------------5-----------5-------------
G-------2-------------------------------2-------------------------------
D-----4---6p4---6---------------------4---4-----6-----------------------
A---4---------4-----------4---------4---------4-----------4-------------
E-2-------------------------------2-------------------------------------


e-5-----------4---4---4---4-------4-------4---5-------7-----------------
B-------------5-----------5-------5-------------------------------------
G---------2h4---------------6-----4-----4---------4-------4-------------
D-------4-------6-------------6-------6-----------6-------6-------------
A-----4-------4-----------4---------------------------------------------
E-2-------------------------------0-----------0-------------------------






DOWNLOAD THIS TAB IN GUITAR PRO



  • click 'Free Download'
  • add your e-mail address
  • you will get an e-mail with your download links (in a few seconds)
  • download the Guitar Pro 6 tab + GP5 + PDF for free
  • and that's all ...


Guitar Pro: a complete workshop for guitarists at an affordable price