20130806

MARCELLO CALABRESE STAIRWAY TO HEAVEN TAB (ELECTRIC GUITAR TAB)

Led Zeppelin - Stairway To Heaven electric guitar cover by Marcello Calabrese
Incredible instrumental guitar cover with backing track
Download the TAB under the video



STAIRWAY TO HEAVEN ELECTRIC GUITAR TAB


Part 1

e-----------------------------------------------------------------------
B-13~-------15.---12.---13.---10.---12.---8.---10.---7.---8~---p7.------
G-----------------------------------------------------------------------
D-----------------------------------------------------------------------
A------  play with the volume  ----  play with the volume  -------------
E-----------------------------------------------------------------------


e-----------------------------------------------------------------------
B-7~---p5.---5p3.---3p1.---1~---p0--------0-------------19(21)~~~-------
G------------------------------------2~---------------------------------
D-----------------------------------------------------------------------
A------  play with the volume  ----  play with the volume  -------------
E-----------------------------------------------------------------------



e-19(21)(19).-----------------------15----------------------------------
B---------------19(21)(19).---------16(17)-----------(15).--------------
G-----------------------------------------------------------------------
D-----------------------------------------------------------------------
A--------------------------------- volume ------------------------------
E-----------------------------------------------------------------------


Part 2 (0:25 - 1:56)

e-----------------------------------------------------------------------
B-5---------------7--------------10-------8---6---5---------------------
G-----------------------------------------9-----------------------------
D-5---------------7--------------10---------------5---------------------
A-----------------------------------------------------------------------
E-----------------------------------------------------------------------


e-----8---------------7-------------------------------------------------
B-8.----------------------------------8---7---7-------------------------
G-----9---------------7-------------------------------------------------
D-9.----------------------------------9---7---7-------------------------
A-----------------------------------------------------------------------
E-----------------------------------------------------------------------


e---------5---3---3---2-----------5-------8.--7.--8---------------------
B-5-----------------------5---3-----------------------------------------
G---------5---4---4---2-----------5-------9.--7.--9---------------------
D-5-----------------------5---4-----------------------------------------
A-----------------------------------------------------------------------
E-----------------------------------------------------------------------


e-10.--12---------------10---------------3---5---5----------------------
B-----------------------------------------------------------------------
G-11.--12---------------11---------------4---5---5----------------------
D-----------------------------------------------------------------------
A-----------------------------------------------------------------------
E-----------------------------------------------------------------------


e-----------------------------------------------------------------------
B-----------------------------------------------------------------------
G-----4---5~---------4-----4~-----------4-5------7---5---4h5p4----------
D-7----------------------7------------7------------------------7--------
A-----------------------------------------------------------------------
E-----------------------------------------------------------------------


e-----------------------------------------------------------------------
B-----------------------------------------------------------------------
G-5---h7-7/9~----------7---5-4h5p4--------------------------------------
D----------------------------------7-------4/5---5---h7---7~------------
A-----------------------------------------------------------------------
E-----------------------------------------------------------------------


e-----------------------------------------------------------------------
B-----------------------------------------------------------------------
G-----4---5~---------4-----4h5p4~---------4-5-----5-7---5---4h5p4-------
D-7----------------------7--------------7-------------------------7-----
A-----------------------------------------------------------------------
E-----------------------------------------------------------------------


e-----------------------------------------------------------------------
B-----------------------------------------------------------------------
G-5---h7-7/9~----------7---5-4h5p4--------------------------------------
D----------------------------------7-------4/5---5---h7---7~------------
A-----------------------------------------------------------------------
E-----------------------------------------------------------------------


e-----------------------------------------------------------------------
B-----------------------------------------------------------------------
G-5~---------7/9---7~------------6/7-------5---4---5~-------------------
D-----------------------------------------------------------------------
A-----------------------------------------------------------------------
E-----------------------------------------------------------------------


e-----------------------------------------------------------------------
B-----------------5-----------------------------------------------------
G-----4---5---7-------7---7-5-4-----------------------------------------
D-7-----------------------------------5-5p4-7~--------------------------
A-----------------------------------------------------------------------
E-----------------------------------------------------------------------


e-----------------------------------------------------------------------
B-----------------------------------------------------------------------
G-----4---5~---------4-----4h5p4~---------4-5------7---5---4h5p4--------
D-7----------------------7--------------7------------------------7------
A-----------------------------------------------------------------------
E-----------------------------------------------------------------------


e-----------------------------------------------------------------------
B-----------------------------------------------------------------------
G-5---h7-7/9~----------7---5-4h5p4--------------------------------------
D----------------------------------7------4/5---5---h7---7~-------------
A-----------------------------------------------------------------------
E-----------------------------------------------------------------------


e-----------------------------------------------------------------------
B-----------------------------------------------------------------------
G-----4---5~---------4-----4~-----------4-5------7---5---4h5p4----------
D-7----------------------7------------7------------------------7--------
A-----------------------------------------------------------------------
E-----------------------------------------------------------------------


e-----------------------------------------------------------------------
B-----------------------------------------------------------------------
G-5---7---7/9~----------7p5-7/9---7~-------5.---------------------------
D---------------------------------------------/5---h7---7~--------------
A-----------------------------------------------------------------------
E-----------------------------------------------------------------------