20130918

BILL HALEY MAMBO ROCK TAB (SOLO)


Bill Haley - Mambo Rock guitar solo cover played by Deaktee
This version is from 1955 and the solo part starts around 1:30
Download the TAB under the video



BILL HALEY MAMBO ROCK SOLO TAB

PDF >>

e------------------12-13.---13.---13.---13.---13.-----13.---------------
B-16.---13-14-15-16-----------------------------------------16.---13----
G--------------------------------------------------------------------14.
D-----------------------------------------------------------------------
A-----------------------------------------------------------------------
E-----------------------------------------------------------------------


e-8--------------------------------8---\--------------------------------
B-----10-8-----------------------8--------------------------------------
G------------10-8---9------8h9------------------------------------------
D---------------------10------------------------------------------------
A-----------------------------------------------------------------------
E-----------------------------------------------------------------------



e-----------------------------------------------------8-8-\-----8-8-\---
B----------8---10-8------8.-----------------8-8-\-----8-8-\-----8-8-\---
G-8/9---10------------10---------10.---10-9-----------------------------
D-----------------------------10----------------------------------------
A-----------------------------------------------------------------------
E-----------------------------------------------------------------------


e-8-8-\-----------------------------------------------------------------
B-8-8-\-----------------------------------------------------------------
G-----------------------------------------------------------------------
D-----------------------------------------------------------------------
A-----------------------------------------------------------------------
E-----------------------------------------------------------------------