20130921

ERIC CLAPTON CROSSROADS SOLO TAB (CROSSROADS GUITAR FESTIVAL, 2010)

Eric Clapton plays Crossroads live at the Crossroads Guitar Festival in 2010
The intro solo at 0:23 and the other guitar solo at 1:39 are transcribed
Download the TAB of these 2 amazing solos below



ERIC CLAPTON CROSSROADS LIVE GUITAR SOLO TAB


Intro riff (awesome)

e-----------------------------------------------------------------------
B-----------------------------------------------------------------------
G-0h2---p0.-------------------------------------------------------------
D-------------0h1p0-----------------------------------------------------
A-------------------3-0-------------------------------------------------
E----------------------------3'-----------------------------------------


e-----------------------------------------------------------------------
B-----------------------------------------------------------------------
G-----2--------2--------------------------2--------2--------------------
D-----2--------2-----0-2~---0h1p0---------2--------2-----0-2---0h1p0----
A-0-------------------------------3---0------------------------------3--
E---------3.----------------------------------3.------------------------



e-----------------------------------------------------------------------
B-----------------------------------------------------------------------
G-----2--------2-------------------------2.-------5.-------7------------
D-----2--------2-----0-2---0h1p0-----2---2.---5---5.---7---7---5--------
A-0------------------------------3---0--------3--------5-------3--------
E---------3.------------------------------------------------------------


e-----------------------------------------------------------------------
B-----------------------------------------------------------------------
G-----2--------2--------------------------2--------2--------------------
D-----2--------2-----0-2~---0h1p0---------2--------2-----0-2---0h1p0----
A-0-------------------------------3---0------------------------------3--
E---------3.----------------------------------3.------------------------


e-----------------------------------------------------------------------
B-----------------------------------------------------------------------
G-----2--------2------------------------5------7------5---/-------------
D-----2--------2-----0-2---0h1p0--------5------7------5---/-------------
A-0------------------------------3---0.-3---5.-5---3.-3---/-------------
E---------3.------------------------------------------------------------


Intro solo by 0:23

e-----------------------------------------------------------------------
B-15(17)-----------------------------------13--------------13.----------
G---------------------------------------------14-14~--------------------
D-----------------------------------------------------------------------
A-----------------------------------------------------------------------
E-----------------------------------------------------------------------


e-----------------------------------------------------------------------
B-------13----15----13'-------------------------------------------------
G-12h14----14----14---------14-12---------------------------------------
D---------------------------------14\12p10------10'---------------------
A------------------------------------------12-x-------12-\--------------
E-----------------------------------------------------------------------


e-------------------------5-------7---.---7p5------5--------------------
B-----------------------5---5-8-5-------------8.-----8p5.---5---------8-
G----------7---5-7(9)-------------------------------------------7/9-----
D------5h7---7----------------------------------------------------------
A-/7--------------------------------------------------------------------
E-----------------------------------------------------------------------


e-----------------------------------------------------------------------
B-----------------------------------------------------------------------
G-9.---7-5-----5--------------------------------------------------------
D----------7p5---7-7~---5-----///-\\\-----------------------------------
A-------------------------0---------------------------------------------
E-----------------------------------------------------------------------


e-----------------------------------------------------------------------
B------8-----5-7--------------------------------------------------------
G-5.-----------------5---7p5---5'---------------------------------------
D----------------------7-----7------7-5---------------------------------
A---------------------------------------7\5p3---3'----------------------
E---------------------------------------------5------///-\\\------------


Solo by 1:39

e-----------------------------------------------------------------------
B-17(20)--------------------17.---15.-----------------------------------
G---------------------------------------17'-----14.---14~---------------
D-------------------------------------------------------------17-14.----
A-----------------------------------------------------------------------
E-----------------------------------------------------------------------