20130921

ERIC CLAPTON MY FATHERS EYES SOLO TAB (LIVE 2007)


Nice record of Eric Clapton playing My Fathers Eyes live in 2007
There is an intro solo at 0:22, a short one at 1:49 and the main solo starts at 4:21
Download the TAB of these solos below



ERIC CLAPTON MY FATHERS EYES SOLO TAB


Intro (0:22 - 1:30)

e-----------------------------------------------------------------------
B-------------------4-5-4h5p4-------------------------------------------
G-4.---5.---------------------6-4~--------------------------------------
D-----------------------------------------------------------------------
A-----------------------------------------------------------------------
E-----------------------------------------------------------------------


e-----------------------------------------------------------------------
B---------------------------------------------------9h10-9~-------------
G-------4---------------------------------------------------------------
D-4/6-----6\4~-----------2~---------------------------------------------
A-----------------------------------------------------------------------
E-----------------------------------------------------------------------


e-----------------------------------------------------------------------
B-----------------------------------------------------------------------
G-9h11p9----9-11-11/13~---------9h11----9~------------------------------
D--------11--------------------------11---------------------------------
A-----------------------------------------------------------------------
E-----------------------------------------------------------------------



e-----------------------------------------------------------------------
B----------------------------------------------------12----12-14--------
G--------------------------------------11----9-11/13----13--------------
D-11-9-----------------9----11----9-11----11----------------------------
A------11\9-7---7-9/11---11----11---------------------------------------
E-------------9---------------------------------------------------------


e-12h14(16).-12~-----------------------14(16)-14~-----12.---------------
B------------------14.--------------12----------------------------------
G-----------------------------------------------------------------------
D-----------------------------------------------------------------------
A-----------------------------------------------------------------------
E-----------------------------------------------------------------------


e-14(16).-(16)(14)p12----12-14-12h14p12----12-12~-----------------------
B---------------------14----------------14------------14-12-------------
G-----------------------------------------------------------13\11-9-----
D-------------------------------------------------------------------11--
A-----------------------------------------------------------------------
E-----------------------------------------------------------------------


e-----------------------------------------------------------------------
B------9-10-9h10p9-9----------------------------------------------------
G-9h11---------------11-9-----------------------------------------------
D-------------------------11-9------------------------------------------
A------------------------------11\9-7---7h9~-----7~------6---7~---------
E-------------------------------------9---------------------------------


e-----------------------------------0-----------------------------------
B------------5.---4-----------------0-----5-----------------------------
G----4~-----------4-----6-4-----2/4-----4---4---4-----------------------
D-/6--------------4-----------------------------------------------------
A-----------------0-----------------------------------------------------
E-------------------------------------4-------4-------------------------


e-----------------------------------------------------------------------
B---------------------2-----2-------------------------------------------
G-------4/6---------4---4-----4-----------------------------------------
D-----2---------2---------2-----2---------------------------------------
A-2/4-------0-----------------------------------------------------------
E-----------------------------------------------------------------------


e--------------------------------------------------------0--------------
B--------------------------------5-\-------2-----------0----------------
G-------4/6~-----4-4~----------4---------2---2-----1--------------------
D-----2-----------------------------------------------------------------
A-2/4-------------------------------------------------------------------
E--------------------------4---------2---------0------------------------